Toto-Forum (13er-Wette) und Wettforum - Betting-Planet.com

TOTO Deutschland & Österreich (Dreizehnerwette, 6 aus 45-Auswahlwette), Sportwetten (Fußball, Eishockey, Tennis, ...). Teilnahme ab 18 Jahren.
Aktuelle Zeit: 16. Jul 2018, 08:13

Alle Zeiten sind UTC+02:00




Ein neues Thema erstellen  Auf das Thema antworten  [ 163 Beiträge ]  Gehe zu Seite Vorherige 17 8 9 10 11
Autor Nachricht
 Betreff des Beitrags: Re: Toto-Systeme
BeitragVerfasst: 16. Mai 2018, 09:34 
Offline
Forumsbetreuung (si)
Forumsbetreuung (si)
Benutzeravatar

Registriert: 26. Sep 2007, 00:44
Beiträge: 4625
Wohnort: Oberlausitz
System 1: 4 Banken, 6 Zweierwege, 3 Dreierwege

Vollsystem (Garantie 13er): 1.728 Reihen
Teilsystem (Garantie 12er): minimal 174 Reihen
Teilsystem (Garantie 11er): minimal 36 Reihen
Teilsystem (Garantie 10er): minimal 12 Reihen

gekürzt auf 70 Reihen: Garantie auf 12er zu 52,66% (auf 11er: 100%), 13er-Gewinn zu 4,05%


1 1 1 1 1 1 0 1 0 1 1 1 0
1 1 1 1 1 1 0 0 2 1 0 1 0
1 1 1 1 1 1 0 2 0 1 0 1 1
1 1 1 1 1 1 2 2 2 1 1 1 2
1 1 1 1 1 2 0 0 2 1 1 1 1
1 1 1 1 1 2 2 1 0 1 0 1 2
1 1 1 1 1 2 2 2 2 1 0 1 0
1 1 1 1 0 1 0 0 0 1 1 1 2
1 1 1 1 0 1 2 1 2 1 1 1 1
1 1 1 1 0 1 2 0 0 1 0 1 1

1 1 1 1 0 2 0 2 0 1 0 1 2
1 1 1 1 0 2 2 2 0 1 1 1 1
1 1 1 0 1 1 2 1 2 1 0 1 1
1 1 1 0 1 1 2 0 0 1 1 1 1
1 1 1 0 1 2 0 2 2 1 0 1 1
1 1 1 0 0 1 0 1 2 1 1 1 2
1 1 1 0 0 1 2 2 0 1 1 1 0
1 1 1 0 0 1 2 2 2 1 0 1 2
1 1 1 0 0 2 0 1 0 1 0 1 1
1 1 1 0 0 2 0 0 2 1 0 1 2

1 1 1 0 0 2 0 2 2 1 1 1 0
1 1 1 0 0 2 2 0 0 1 0 1 0
1 0 1 1 1 1 0 1 2 1 1 1 1
1 0 1 1 1 1 2 0 2 1 0 1 1
1 0 1 1 1 1 2 2 0 1 0 1 0
1 0 1 1 1 2 0 2 0 1 1 1 2
1 0 1 1 1 2 2 1 2 1 1 1 2
1 0 1 1 0 1 0 2 2 1 1 1 2
1 0 1 1 0 1 2 1 0 1 1 1 0
1 0 1 1 0 2 0 1 2 1 0 1 0

1 0 1 1 0 2 0 0 0 1 0 1 1
1 0 1 1 0 2 2 0 2 1 1 1 0
1 0 1 1 0 2 2 2 2 1 0 1 1
1 0 1 0 1 1 0 1 2 1 0 1 2
1 0 1 0 1 1 0 0 2 1 1 1 0
1 0 1 0 1 1 2 2 0 1 1 1 2
1 0 1 0 1 2 0 0 0 1 1 1 1
1 0 1 0 1 2 2 1 0 1 0 1 0
1 0 1 0 1 2 2 0 2 1 0 1 2
1 0 1 0 1 2 2 2 2 1 1 1 0

1 0 1 0 0 1 0 0 0 1 0 1 2
1 0 1 0 0 1 0 2 0 1 1 1 1
1 0 1 0 0 1 2 1 2 1 0 1 0
1 0 1 0 0 2 0 1 2 1 1 1 1
1 0 1 0 0 2 0 2 0 1 0 1 0
1 0 1 0 0 2 2 1 0 1 1 1 2
1 2 1 1 1 1 2 1 2 1 0 1 0
1 2 1 1 1 1 2 0 0 1 1 1 2
1 2 1 1 1 2 0 1 2 1 0 1 2
1 2 1 1 1 2 0 0 0 1 0 1 0

1 2 1 1 1 2 2 2 0 1 1 1 0
1 2 1 1 0 1 0 1 0 1 0 1 1
1 2 1 1 0 1 0 2 0 1 1 1 0
1 2 1 1 0 1 2 0 2 1 0 1 2
1 2 1 1 0 2 0 1 0 1 1 1 2
1 2 1 1 0 2 0 2 2 1 1 1 1
1 2 1 1 0 2 2 1 0 1 0 1 0
1 2 1 0 1 1 0 1 0 1 1 1 2
1 2 1 0 1 1 0 0 2 1 0 1 1
1 2 1 0 1 1 2 0 0 1 0 1 0

1 2 1 0 1 1 2 2 2 1 1 1 1
1 2 1 0 1 2 0 0 2 1 1 1 2
1 2 1 0 1 2 0 2 0 1 0 1 2
1 2 1 0 1 2 2 1 0 1 1 1 1
1 2 1 0 0 1 0 2 2 1 0 1 0
1 2 1 0 0 1 2 1 0 1 0 1 2
1 2 1 0 0 1 2 0 2 1 1 1 0
1 2 1 0 0 2 0 0 0 1 1 1 0
1 2 1 0 0 2 2 0 2 1 0 1 1
1 2 1 0 0 2 2 2 2 1 1 1 2

System 2: 4 Banken, 6 Zweierwege, 3 Dreierwege

Vollsystem (Garantie 13er): 1.728 Reihen
Teilsystem (Garantie 12er): minimal 174 Reihen
Teilsystem (Garantie 11er): minimal 36 Reihen
Teilsystem (Garantie 10er): minimal 12 Reihen

gekürzt auf 70 Reihen: Garantie auf 12er zu 52,66% (auf 11er: 100%), 13er-Gewinn zu 4,05%


1 1 1 1 1 1 0 1 0 1 0 0 2
1 1 1 1 1 1 0 1 2 1 2 2 1
1 1 1 1 1 1 0 1 2 0 0 2 2
1 1 1 1 1 1 2 1 0 0 0 0 0
1 1 1 1 1 1 2 1 0 0 2 1 1
1 1 1 1 1 1 2 1 2 1 2 0 0
1 1 1 1 1 2 0 1 0 1 2 2 0
1 1 1 1 1 2 2 1 0 0 2 0 2
1 1 1 1 1 2 2 1 2 0 0 1 1
1 1 1 1 1 2 2 1 2 0 2 2 0

1 1 1 0 1 1 0 1 0 1 2 0 0
1 1 1 0 1 1 0 1 2 1 0 0 1
1 1 1 0 1 1 2 1 0 1 0 1 0
1 1 1 0 1 1 2 1 0 0 2 2 2
1 1 1 0 1 1 2 1 2 1 2 1 2
1 1 1 0 1 1 2 1 2 0 0 2 1
1 1 1 0 1 2 0 1 0 1 0 1 2
1 1 1 0 1 2 0 1 0 0 2 1 1
1 1 1 0 1 2 0 1 2 1 0 2 0
1 1 1 0 1 2 0 1 2 0 2 0 2

1 1 1 0 1 2 2 1 0 1 0 0 1
1 1 1 0 1 2 2 1 0 0 0 2 0
1 0 1 1 1 1 0 1 0 1 2 1 2
1 0 1 1 1 1 0 1 0 0 2 2 0
1 0 1 1 1 1 0 1 2 0 2 0 2
1 0 1 1 1 1 2 1 0 1 0 0 1
1 0 1 1 1 1 2 1 0 0 0 2 2
1 0 1 1 1 1 2 1 2 0 2 1 0
1 0 1 1 1 2 0 1 0 0 0 0 2
1 0 1 1 1 2 0 1 2 1 0 0 0

1 0 1 1 1 2 0 1 2 1 2 2 2
1 0 1 1 1 2 0 1 2 0 2 1 1
1 0 1 1 1 2 2 1 0 1 2 1 1
1 0 1 1 1 2 2 1 0 0 0 1 0
1 0 1 1 1 2 2 1 2 1 0 1 2
1 0 1 0 1 1 0 1 0 0 2 0 1
1 0 1 0 1 1 0 1 2 1 0 1 0
1 0 1 0 1 1 2 1 0 1 2 0 2
1 0 1 0 1 1 2 1 0 0 0 1 1
1 0 1 0 1 1 2 1 2 1 0 2 2

1 0 1 0 1 2 0 1 0 1 0 2 1
1 0 1 0 1 2 0 1 0 0 2 2 2
1 0 1 0 1 2 0 1 2 1 2 0 1
1 0 1 0 1 2 2 1 0 0 2 0 0
1 0 1 0 1 2 2 1 2 1 2 1 0
1 0 1 0 1 2 2 1 2 0 0 0 2
1 0 1 0 1 2 2 1 2 0 2 2 1
1 2 1 1 1 1 0 1 2 1 2 1 0
1 2 1 1 1 1 2 1 0 1 0 1 2
1 2 1 1 1 1 2 1 0 1 2 2 1

1 2 1 1 1 1 2 1 2 0 2 2 2
1 2 1 1 1 2 0 1 0 1 0 2 2
1 2 1 1 1 2 0 1 0 0 2 1 0
1 2 1 1 1 2 0 1 2 1 0 1 1
1 2 1 1 1 2 0 1 2 0 0 2 0
1 2 1 1 1 2 2 1 0 1 2 0 0
1 2 1 1 1 2 2 1 0 0 0 2 1
1 2 1 1 1 2 2 1 2 0 2 0 1
1 2 1 0 1 1 0 1 0 1 0 1 1
1 2 1 0 1 1 0 1 0 1 2 2 2

1 2 1 0 1 1 0 1 0 0 0 0 0
1 2 1 0 1 1 0 1 2 0 0 1 2
1 2 1 0 1 1 0 1 2 0 2 2 0
1 2 1 0 1 1 2 1 2 1 0 0 0
1 2 1 0 1 1 2 1 2 0 2 1 1
1 2 1 0 1 2 0 1 2 1 2 1 2
1 2 1 0 1 2 0 1 2 0 0 0 1
1 2 1 0 1 2 2 1 0 0 2 1 2
1 2 1 0 1 2 2 1 2 1 0 2 1
1 2 1 0 1 2 2 1 2 0 0 1 0

System 3: 5 Banken, 4 Zweierwege, 4 Dreierwege

Vollsystem (Garantie 13er): 1.296 Reihen
Teilsystem (Garantie 12er): minimal 128 Reihen
Teilsystem (Garantie 11er): minimal 24 Reihen
Teilsystem (Garantie 10er): minimal 10 Reihen

gekürzt auf 128 Reihen: Garantie auf 12er zu 100%, 13er-Gewinn zu 9,88%


1 0 1 2 1 2 1 1 1 1 2 1 0
1 0 1 2 0 2 1 1 1 1 0 1 1
1 2 1 2 0 2 1 1 1 1 1 1 2
1 2 1 2 1 2 1 1 1 1 1 1 2
1 0 1 2 1 0 1 1 1 1 2 1 1
1 2 1 2 1 0 1 1 1 1 0 1 0
1 0 1 2 0 0 1 1 1 1 1 1 0
1 2 1 2 0 1 1 1 1 1 2 1 1
1 0 1 2 0 1 1 1 1 1 0 1 2
1 0 1 2 1 1 1 1 1 1 0 1 2

1 2 1 2 1 1 1 1 1 1 1 1 0
1 2 1 0 1 2 1 1 1 1 2 1 1
1 2 1 0 0 2 1 1 1 1 0 1 0
1 0 1 0 1 2 1 1 1 1 1 1 0
1 0 1 0 1 0 1 1 1 1 2 1 2
1 2 1 0 0 0 1 1 1 1 0 1 2
1 2 1 0 0 0 1 1 1 1 1 1 1
1 2 1 0 1 0 1 1 1 1 1 1 1
1 0 1 0 0 1 1 1 1 1 2 1 0
1 0 1 0 1 1 1 1 1 1 0 1 1

1 2 1 0 1 1 1 1 1 1 0 1 1
1 0 1 0 0 1 1 1 1 1 1 1 2
1 0 1 1 0 2 1 1 1 1 2 1 2
1 2 1 1 1 2 1 1 1 1 0 1 2
1 0 1 1 1 2 1 1 1 1 1 1 1
1 2 1 1 0 0 1 1 1 1 2 1 0
1 2 1 1 1 0 1 1 1 1 2 1 0
1 0 1 1 0 0 1 1 1 1 0 1 1
1 0 1 1 1 0 1 1 1 1 1 1 2
1 2 1 1 1 1 1 1 1 1 2 1 2

1 0 1 1 1 1 1 1 1 1 0 1 0
1 2 1 1 0 1 1 1 1 1 1 1 1
1 2 1 2 0 2 1 1 2 1 2 2 0
1 0 1 2 0 2 1 1 2 1 2 2 1
1 2 1 2 0 2 1 1 2 1 0 2 2
1 0 1 2 0 2 1 1 2 1 1 2 2
1 0 1 2 1 2 1 1 2 1 1 2 2
1 0 1 2 1 0 1 1 2 1 0 2 1
1 2 1 2 1 0 1 1 2 1 1 2 0
1 2 1 2 1 1 1 1 2 1 2 2 1

1 0 1 2 0 1 1 1 2 1 0 2 0
1 2 1 2 0 1 1 1 2 1 1 2 2
1 0 1 0 0 2 1 1 2 1 2 2 0
1 0 1 0 1 2 1 1 2 1 2 2 1
1 2 1 0 1 2 1 1 2 1 0 2 0
1 2 1 0 0 2 1 1 2 1 1 2 1
1 2 1 0 0 0 1 1 2 1 2 2 1
1 2 1 0 1 0 1 1 2 1 0 2 2
1 0 1 0 0 0 1 1 2 1 1 2 2
1 0 1 0 1 1 1 1 2 1 2 2 2

1 0 1 0 0 1 1 1 2 1 0 2 1
1 2 1 0 0 1 1 1 2 1 0 2 1
1 0 1 0 1 1 1 1 2 1 1 2 0
1 2 1 1 1 2 1 1 2 1 2 2 2
1 0 1 1 1 2 1 1 2 1 0 2 1
1 0 1 1 0 0 1 1 2 1 2 2 0
1 0 1 1 1 0 1 1 2 1 2 2 0
1 2 1 1 0 0 1 1 2 1 0 2 0
1 2 1 1 0 0 1 1 2 1 1 2 2
1 0 1 1 0 0 1 1 2 1 1 2 1

1 2 1 1 0 1 1 1 2 1 2 2 0
1 0 1 1 0 1 1 1 2 1 0 2 2
1 2 1 1 1 1 1 1 2 1 0 2 0
1 2 1 1 1 1 1 1 2 1 1 2 1
1 2 1 2 0 2 1 1 2 1 2 1 0
1 0 1 2 1 2 1 1 2 1 0 1 0
1 2 1 2 1 2 1 1 2 1 1 1 1
1 0 1 2 0 0 1 1 2 1 2 1 2
1 0 1 2 1 0 1 1 2 1 2 1 2
1 2 1 2 0 0 1 1 2 1 0 1 1

1 2 1 2 1 0 1 1 2 1 1 1 0
1 0 1 2 1 1 1 1 2 1 2 1 0
1 2 1 2 1 1 1 1 2 1 0 1 2
1 0 1 2 0 1 1 1 2 1 1 1 1
1 0 1 0 0 2 1 1 2 1 2 1 1
1 0 1 0 1 2 1 1 2 1 2 1 1
1 0 1 0 0 2 1 1 2 1 0 1 2
1 2 1 0 1 2 1 1 2 1 1 1 2
1 2 1 0 1 0 1 1 2 1 2 1 0
1 0 1 0 0 0 1 1 2 1 0 1 0

1 0 1 0 1 0 1 1 2 1 1 1 1
1 2 1 0 0 1 1 1 2 1 2 1 2
1 0 1 0 1 1 1 1 2 1 0 1 1
1 2 1 0 1 1 1 1 2 1 0 1 1
1 2 1 0 0 1 1 1 2 1 1 1 0
1 2 1 1 1 2 1 1 2 1 2 1 2
1 2 1 1 0 2 1 1 2 1 0 1 1
1 0 1 1 0 2 1 1 2 1 1 1 0
1 0 1 1 1 2 1 1 2 1 1 1 0
1 2 1 1 1 0 1 1 2 1 2 1 1

1 0 1 1 1 0 1 1 2 1 0 1 2
1 2 1 1 0 0 1 1 2 1 1 1 2
1 0 1 1 0 1 1 1 2 1 2 1 1
1 2 1 1 0 1 1 1 2 1 0 1 0
1 2 1 1 1 1 1 1 2 1 0 1 0
1 0 1 1 1 1 1 1 2 1 1 1 2
1 0 1 2 1 2 1 1 1 1 2 2 0
1 2 1 2 1 2 1 1 1 1 0 2 1
1 2 1 2 0 0 1 1 1 1 2 2 2
1 2 1 2 1 0 1 1 1 1 2 2 2

1 0 1 2 0 0 1 1 1 1 0 2 2
1 0 1 2 0 0 1 1 1 1 1 2 0
1 2 1 2 0 0 1 1 1 1 1 2 1
1 0 1 2 0 1 1 1 1 1 2 2 2
1 0 1 2 1 1 1 1 1 1 0 2 2
1 2 1 2 0 1 1 1 1 1 0 2 0
1 0 1 2 1 1 1 1 1 1 1 2 1
1 2 1 0 0 2 1 1 1 1 2 2 2
1 0 1 0 1 2 1 1 1 1 0 2 2
1 0 1 0 0 2 1 1 1 1 1 2 1

1 0 1 0 0 0 1 1 1 1 2 2 1
1 0 1 0 1 0 1 1 1 1 0 2 0
1 2 1 0 0 0 1 1 1 1 1 2 0
1 2 1 0 1 0 1 1 1 1 1 2 1
1 2 1 0 1 1 1 1 1 1 2 2 0
1 0 1 0 0 1 1 1 1 1 0 2 1
1 2 1 0 0 1 1 1 1 1 0 2 1
1 2 1 0 1 1 1 1 1 1 1 2 2
1 0 1 1 0 2 1 1 1 1 2 2 2
1 2 1 1 0 2 1 1 1 1 2 2 1

1 0 1 1 0 2 1 1 1 1 0 2 0
1 2 1 1 0 2 1 1 1 1 1 2 0
1 2 1 1 1 2 1 1 1 1 1 2 0
1 2 1 1 1 0 1 1 1 1 0 2 1
1 0 1 1 1 0 1 1 1 1 1 2 2
1 0 1 1 1 1 1 1 1 1 2 2 1
1 2 1 1 0 1 1 1 1 1 0 2 2
1 0 1 1 0 1 1 1 1 1 1 2 0


Nach oben
   
 Betreff des Beitrags: Re: Toto-Systeme
BeitragVerfasst: 16. Mai 2018, 11:05 
Offline
Tipp-Spezialist (mar)
Tipp-Spezialist (mar)

Registriert: 13. Jul 2012, 15:41
Beiträge: 537
Wohnort: Schweiz
:wave
3 Vollsysteme, Total 4752 Reihen, davon 144 doppelt.
3 Systeme, Total 268 Reihen.
WENN 268 Reihen in jedem Vollsystem überprüft wird, Garantie für 12er, mehrfach 11er und 10er Beiwerk sieht besser aus.

System 1: 4 Banken, 6 Zweierwege, 3 Dreierwege
Vollsystem (Garantie 13er): 1.728 Reihen
gekürzt auf 70 Reihen: Garantie auf 12er zu 56,66% (auf 11er: 100%), 13er-Gewinn zu 4,05%

System 2: 4 Banken, 6 Zweierwege, 3 Dreierwege
Vollsystem (Garantie 13er): 1.728 Reihen
gekürzt auf 70 Reihen: Garantie auf 12er zu 55,90% (auf 11er: 100%), 13er-Gewinn zu 4,05%


System 3: 5 Banken, 4 Zweierwege, 4 Dreierwege
Vollsystem (Garantie 13er): 1.296 Reihen
gekürzt auf 128 Reihen: Garantie auf 12er zu 100%, 13er-Gewinn zu 9,88%


Nach oben
   
 Betreff des Beitrags: Re: Toto-Systeme
BeitragVerfasst: 25. Mai 2018, 20:22 
Offline
Tipp-Geselle

Registriert: 12. Apr 2018, 23:26
Beiträge: 63
Hallo,

Kann mir jemand diesen 2-6-5 System mit 12, garantie, verstet sich nicht voll system.

1- 102
2 -1
3- 1 02
4 -102
5- 10
6 -10
7- 1
8 -102
9 -102
10 -10
11 -10
12-1 0
13 -10

Vielen Dank

_________________
Ich spiele Toto seit 1987
Resultate: 10er = über 500, 11er = über 80, 12er = über 20, 13er = 8 (aber seit 2016 leider kein 13er)
Vorsicht vor Italien, Österreich, England 2 bis Amateure, Schweden sowieso, und allen arabischen Ligen.


Nach oben
   
 Betreff des Beitrags: Re: Toto-Systeme
BeitragVerfasst: 25. Mai 2018, 22:24 
Offline
Forumsbetreuung (si)
Forumsbetreuung (si)
Benutzeravatar

Registriert: 26. Sep 2007, 00:44
Beiträge: 4625
Wohnort: Oberlausitz
@Seyd

2 Banken, 6 Zweierwege, 5 Dreierwege

Vollsystem: 15.552 Reihen
Teilsystem, 12er-Garantie: 1.184 Reihen
Teilsystem, 11er-Garantie: 192 Reihen
Teilsystem, 10er-Garantie: 54 Reihen

Anbei die 1.184 Reihen:

1: 1-1-1-1-1-X-1-1-1-1-1-X-X
2: 1-1-1-1-1-X-1-1-1-X-X-1-1
3: 1-1-1-1-X-1-1-1-1-1-1-X-X
4: 1-1-1-1-X-1-1-1-1-X-X-1-1
5: 1-1-1-1-1-1-1-1-X-1-1-1-1
6: 1-1-1-1-1-1-1-1-X-1-X-X-1
7: 1-1-1-1-1-1-1-1-X-X-1-1-X
8: 1-1-1-1-1-1-1-1-X-X-X-X-X
9: 1-1-1-1-X-X-1-1-X-1-X-X-1
10: 1-1-1-1-X-X-1-1-X-X-1-1-X
11: 1-1-1-1-1-X-1-1-2-1-X-1-X
12: 1-1-1-1-1-X-1-1-2-X-1-X-1
13: 1-1-1-1-X-1-1-1-2-1-X-1-X
14: 1-1-1-1-X-1-1-1-2-X-1-X-1
15: 1-1-1-1-1-X-1-X-1-1-X-X-1
16: 1-1-1-1-1-X-1-X-1-X-1-1-X
17: 1-1-1-1-X-1-1-X-1-1-X-X-1
18: 1-1-1-1-X-1-1-X-1-X-1-1-X
19: 1-1-1-1-1-X-1-X-X-1-X-1-X
20: 1-1-1-1-1-X-1-X-X-X-1-X-1
21: 1-1-1-1-X-1-1-X-X-1-X-1-X
22: 1-1-1-1-X-1-1-X-X-X-1-X-1
23: 1-1-1-1-1-1-1-X-2-1-1-X-X
24: 1-1-1-1-1-1-1-X-2-X-X-1-1
25: 1-1-1-1-X-X-1-X-2-1-1-1-1
26: 1-1-1-1-X-X-1-X-2-1-1-X-X
27: 1-1-1-1-X-X-1-X-2-X-X-1-1
28: 1-1-1-1-X-X-1-X-2-X-X-X-X
29: 1-1-1-1-1-1-1-2-1-1-1-1-1
30: 1-1-1-1-1-1-1-2-1-1-X-1-X
31: 1-1-1-1-1-1-1-2-1-X-1-X-1
32: 1-1-1-1-X-X-1-2-1-1-X-1-X
33: 1-1-1-1-X-X-1-2-1-X-1-X-1
34: 1-1-1-1-X-X-1-2-1-X-X-X-X
35: 1-1-1-1-1-X-1-2-X-1-1-X-X
36: 1-1-1-1-1-X-1-2-X-X-X-1-1
37: 1-1-1-1-X-1-1-2-X-1-1-X-X
38: 1-1-1-1-X-1-1-2-X-X-X-1-1
39: 1-1-1-1-1-X-1-2-2-1-X-X-1
40: 1-1-1-1-1-X-1-2-2-X-1-1-X
41: 1-1-1-1-X-1-1-2-2-1-X-X-1
42: 1-1-1-1-X-1-1-2-2-X-1-1-X
43: 1-1-1-X-1-X-1-1-1-X-X-X-X
44: 1-1-1-X-X-1-1-1-1-1-1-1-1
45: 1-1-1-X-1-X-1-1-X-1-1-1-X
46: 1-1-1-X-1-X-1-1-X-1-1-X-1
47: 1-1-1-X-1-X-1-1-X-1-X-1-1
48: 1-1-1-X-1-X-1-1-X-X-1-1-1
49: 1-1-1-X-X-1-1-1-X-1-X-X-X
50: 1-1-1-X-X-1-1-1-X-X-1-X-X
51: 1-1-1-X-X-1-1-1-X-X-X-1-X
52: 1-1-1-X-X-X-1-1-X-1-1-1-1
53: 1-1-1-X-X-X-1-1-X-1-1-X-X
54: 1-1-1-X-X-X-1-1-X-1-X-1-X
55: 1-1-1-X-X-X-1-1-X-X-1-1-X
56: 1-1-1-X-1-1-1-1-2-1-1-1-X
57: 1-1-1-X-1-1-1-1-2-X-X-X-1
58: 1-1-1-X-1-X-1-1-2-X-X-X-1
59: 1-1-1-X-X-X-1-1-2-X-X-X-1
60: 1-1-1-X-1-X-1-X-1-1-1-1-1
61: 1-1-1-X-X-1-1-X-1-X-X-X-X
62: 1-1-1-X-X-X-1-X-1-1-1-1-X
63: 1-1-1-X-1-1-1-X-X-1-1-1-X
64: 1-1-1-X-1-1-1-X-X-X-X-X-1
65: 1-1-1-X-1-X-1-X-X-X-X-X-1
66: 1-1-1-X-X-X-1-X-X-X-X-X-1
67: 1-1-1-X-1-X-1-X-2-1-X-X-X
68: 1-1-1-X-1-X-1-X-2-X-1-X-X
69: 1-1-1-X-1-X-1-X-2-X-X-1-X
70: 1-1-1-X-1-X-1-X-2-X-X-X-1
71: 1-1-1-X-X-1-1-X-2-1-1-X-1
72: 1-1-1-X-X-1-1-X-2-1-X-1-1
73: 1-1-1-X-X-1-1-X-2-X-1-1-1
74: 1-1-1-X-1-1-1-2-1-1-1-X-X
75: 1-1-1-X-1-1-1-2-1-1-X-1-X
76: 1-1-1-X-1-1-1-2-1-1-X-X-1
77: 1-1-1-X-1-1-1-2-1-X-1-1-X
78: 1-1-1-X-1-1-1-2-1-X-1-X-1
79: 1-1-1-X-1-1-1-2-1-X-X-1-1
80: 1-1-1-X-X-1-1-2-1-X-X-X-1
81: 1-1-1-X-X-X-1-2-1-1-X-X-1
82: 1-1-1-X-X-X-1-2-1-X-1-X-1
83: 1-1-1-X-X-X-1-2-1-X-X-1-1
84: 1-1-1-X-1-X-1-2-X-X-X-X-X
85: 1-1-1-X-X-1-1-2-X-1-1-1-1
86: 1-1-1-X-1-X-1-2-2-1-1-1-1
87: 1-1-1-X-X-1-1-2-2-X-X-X-X
88: 1-1-1-X-X-X-1-2-2-1-1-1-X
89: 1-1-1-2-1-1-1-1-1-1-X-1-1
90: 1-1-1-2-1-1-1-1-1-X-1-X-X
91: 1-1-1-2-X-X-1-1-1-1-X-1-1
92: 1-1-1-2-X-X-1-1-1-X-1-X-X
93: 1-1-1-2-1-X-1-1-X-1-1-1-X
94: 1-1-1-2-1-X-1-1-X-1-X-X-X
95: 1-1-1-2-1-X-1-1-X-X-1-1-1
96: 1-1-1-2-X-1-1-1-X-1-X-X-X
97: 1-1-1-2-X-1-1-1-X-X-1-1-1
98: 1-1-1-2-X-1-1-1-X-X-X-X-1
99: 1-1-1-2-1-1-1-1-2-1-1-X-1
100: 1-1-1-2-1-1-1-1-2-X-X-1-X
101: 1-1-1-2-X-X-1-1-2-1-1-X-1
102: 1-1-1-2-X-X-1-1-2-X-X-1-X
103: 1-1-1-2-1-1-1-X-1-1-X-X-X
104: 1-1-1-2-1-1-1-X-1-X-1-1-1
105: 1-1-1-2-X-X-1-X-1-1-X-X-X
106: 1-1-1-2-X-X-1-X-1-X-1-1-1
107: 1-1-1-2-1-1-1-X-X-1-1-X-1
108: 1-1-1-2-1-1-1-X-X-X-X-1-X
109: 1-1-1-2-X-X-1-X-X-1-1-X-1
110: 1-1-1-2-X-X-1-X-X-X-X-1-X
111: 1-1-1-2-1-X-1-X-2-1-1-1-X
112: 1-1-1-2-1-X-1-X-2-1-X-1-1
113: 1-1-1-2-1-X-1-X-2-X-1-X-X
114: 1-1-1-2-X-1-1-X-2-1-X-1-1
115: 1-1-1-2-X-1-1-X-2-X-1-X-X
116: 1-1-1-2-X-1-1-X-2-X-X-X-1
117: 1-1-1-2-1-X-1-2-1-1-1-X-1
118: 1-1-1-2-1-X-1-2-1-X-X-1-X
119: 1-1-1-2-1-X-1-2-1-X-X-X-1
120: 1-1-1-2-X-1-1-2-1-1-1-1-X
121: 1-1-1-2-X-1-1-2-1-1-1-X-1
122: 1-1-1-2-X-1-1-2-1-X-X-1-X
123: 1-1-1-2-1-1-1-2-X-1-X-1-1
124: 1-1-1-2-1-1-1-2-X-X-1-X-X
125: 1-1-1-2-X-X-1-2-X-1-X-1-1
126: 1-1-1-2-X-X-1-2-X-X-1-X-X
127: 1-1-1-2-1-1-1-2-2-1-X-X-X
128: 1-1-1-2-1-1-1-2-2-X-1-1-1
129: 1-1-1-2-X-X-1-2-2-1-X-X-X
130: 1-1-1-2-X-X-1-2-2-X-1-1-1
131: 1-1-X-1-1-1-1-1-1-X-X-X-1
132: 1-1-X-1-1-X-1-1-1-1-1-1-1
133: 1-1-X-1-X-1-1-1-1-X-X-X-X
134: 1-1-X-1-X-X-1-1-1-1-1-1-1
135: 1-1-X-1-1-1-1-1-X-1-1-X-X
136: 1-1-X-1-1-1-1-1-X-1-X-1-X
137: 1-1-X-1-1-1-1-1-X-X-1-1-X
138: 1-1-X-1-X-1-1-1-X-1-1-1-X
139: 1-1-X-1-X-1-1-1-X-X-X-X-1
140: 1-1-X-1-X-X-1-1-X-1-X-X-1
141: 1-1-X-1-X-X-1-1-X-X-1-X-1
142: 1-1-X-1-X-X-1-1-X-X-X-1-1
143: 1-1-X-1-X-X-1-1-X-X-X-X-X
144: 1-1-X-1-1-X-1-1-2-X-X-X-X
145: 1-1-X-1-X-1-1-1-2-1-1-1-1
146: 1-1-X-1-X-X-1-1-2-1-1-1-X
147: 1-1-X-1-1-1-1-X-1-1-1-1-X
148: 1-1-X-1-1-1-1-X-1-X-X-X-X
149: 1-1-X-1-X-X-1-X-1-X-X-X-1
150: 1-1-X-1-1-X-1-X-X-X-X-X-X
151: 1-1-X-1-X-1-1-X-X-1-1-1-1
152: 1-1-X-1-X-X-1-X-X-1-1-1-X
153: 1-1-X-1-1-1-1-X-2-1-1-1-1
154: 1-1-X-1-1-1-1-X-2-1-X-X-1
155: 1-1-X-1-1-1-1-X-2-X-1-X-1
156: 1-1-X-1-1-1-1-X-2-X-X-1-1
157: 1-1-X-1-1-1-1-X-2-X-X-X-X
158: 1-1-X-1-1-X-1-X-2-1-1-X-1
159: 1-1-X-1-1-X-1-X-2-1-X-1-1
160: 1-1-X-1-1-X-1-X-2-X-1-1-1
161: 1-1-X-1-X-1-1-X-2-1-X-X-X
162: 1-1-X-1-X-1-1-X-2-X-1-X-X
163: 1-1-X-1-X-1-1-X-2-X-X-1-X
164: 1-1-X-1-1-X-1-2-1-1-X-X-X
165: 1-1-X-1-1-X-1-2-1-X-1-X-X
166: 1-1-X-1-1-X-1-2-1-X-X-1-X
167: 1-1-X-1-X-1-1-2-1-1-1-X-1
168: 1-1-X-1-X-1-1-2-1-1-X-1-1
169: 1-1-X-1-X-1-1-2-1-X-1-1-1
170: 1-1-X-1-X-X-1-2-1-1-1-1-1
171: 1-1-X-1-X-X-1-2-1-1-1-X-X
172: 1-1-X-1-X-X-1-2-1-1-X-1-X
173: 1-1-X-1-X-X-1-2-1-X-1-1-X
174: 1-1-X-1-1-1-1-2-X-X-X-X-1
175: 1-1-X-1-1-X-1-2-X-1-1-1-1
176: 1-1-X-1-X-1-1-2-X-X-X-X-X
177: 1-1-X-1-X-X-1-2-X-1-1-1-1
178: 1-1-X-1-1-1-1-2-2-1-1-1-X
179: 1-1-X-1-1-1-1-2-2-X-X-X-X
180: 1-1-X-1-X-X-1-2-2-X-X-X-1
181: 1-1-X-X-1-1-1-1-1-1-1-X-1
182: 1-1-X-X-1-1-1-1-1-X-X-1-X
183: 1-1-X-X-X-X-1-1-1-1-1-X-1
184: 1-1-X-X-X-X-1-1-1-X-X-1-X
185: 1-1-X-X-1-X-1-1-X-1-1-1-X
186: 1-1-X-X-1-X-1-1-X-1-X-1-1
187: 1-1-X-X-1-X-1-1-X-X-1-X-X
188: 1-1-X-X-X-1-1-1-X-1-X-1-1
189: 1-1-X-X-X-1-1-1-X-X-1-X-X
190: 1-1-X-X-X-1-1-1-X-X-X-X-1
191: 1-1-X-X-1-1-1-1-2-1-X-X-X
192: 1-1-X-X-1-1-1-1-2-X-1-1-1
193: 1-1-X-X-X-X-1-1-2-1-X-X-X
194: 1-1-X-X-X-X-1-1-2-X-1-1-1
195: 1-1-X-X-1-1-1-X-1-1-X-1-1
196: 1-1-X-X-1-1-1-X-1-X-1-X-X
197: 1-1-X-X-X-X-1-X-1-1-X-1-1
198: 1-1-X-X-X-X-1-X-1-X-1-X-X
199: 1-1-X-X-1-1-1-X-X-1-X-X-X
200: 1-1-X-X-1-1-1-X-X-X-1-1-1
201: 1-1-X-X-X-X-1-X-X-1-X-X-X
202: 1-1-X-X-X-X-1-X-X-X-1-1-1
203: 1-1-X-X-1-X-1-X-2-1-1-X-1
204: 1-1-X-X-1-X-1-X-2-X-X-1-X
205: 1-1-X-X-X-1-1-X-2-1-1-1-X
206: 1-1-X-X-X-1-1-X-2-1-1-X-1
207: 1-1-X-X-X-1-1-X-2-X-X-1-X
208: 1-1-X-X-X-1-1-X-2-X-X-X-1
209: 1-1-X-X-1-X-1-2-1-1-1-1-X
210: 1-1-X-X-1-X-1-2-1-1-X-X-X
211: 1-1-X-X-1-X-1-2-1-X-1-1-1
212: 1-1-X-X-1-X-1-2-1-X-X-X-1
213: 1-1-X-X-X-1-1-2-1-1-X-X-X
214: 1-1-X-X-X-1-1-2-1-X-1-1-1
215: 1-1-X-X-1-1-1-2-X-1-1-X-1
216: 1-1-X-X-1-1-1-2-X-X-X-1-X
217: 1-1-X-X-X-X-1-2-X-1-1-X-1
218: 1-1-X-X-X-X-1-2-X-X-X-1-X
219: 1-1-X-X-1-1-1-2-2-1-X-1-1
220: 1-1-X-X-1-1-1-2-2-X-1-X-X
221: 1-1-X-X-X-X-1-2-2-1-X-1-1
222: 1-1-X-X-X-X-1-2-2-X-1-X-X
223: 1-1-X-2-1-X-1-1-1-1-X-1-X
224: 1-1-X-2-1-X-1-1-1-X-1-X-1
225: 1-1-X-2-X-1-1-1-1-1-X-1-X
226: 1-1-X-2-X-1-1-1-1-X-1-X-1
227: 1-1-X-2-1-1-1-1-X-1-1-1-1
228: 1-1-X-2-1-1-1-1-X-1-1-X-X
229: 1-1-X-2-1-1-1-1-X-X-X-1-1
230: 1-1-X-2-1-1-1-1-X-X-X-X-X
231: 1-1-X-2-X-X-1-1-X-1-1-X-X
232: 1-1-X-2-X-X-1-1-X-X-X-1-1
233: 1-1-X-2-1-X-1-1-2-1-X-X-1
234: 1-1-X-2-1-X-1-1-2-X-1-1-X
235: 1-1-X-2-X-1-1-1-2-1-X-X-1
236: 1-1-X-2-X-1-1-1-2-X-1-1-X
237: 1-1-X-2-1-X-1-X-1-1-1-X-X
238: 1-1-X-2-1-X-1-X-1-X-X-1-1
239: 1-1-X-2-X-1-1-X-1-1-1-X-X
240: 1-1-X-2-X-1-1-X-1-X-X-1-1
241: 1-1-X-2-1-X-1-X-X-1-X-X-1
242: 1-1-X-2-1-X-1-X-X-X-1-1-X
243: 1-1-X-2-X-1-1-X-X-1-X-X-1
244: 1-1-X-2-X-1-1-X-X-X-1-1-X
245: 1-1-X-2-1-1-1-X-2-1-X-1-X
246: 1-1-X-2-1-1-1-X-2-X-1-X-1
247: 1-1-X-2-X-X-1-X-2-1-1-1-1
248: 1-1-X-2-X-X-1-X-2-1-X-1-X
249: 1-1-X-2-X-X-1-X-2-X-1-X-1
250: 1-1-X-2-X-X-1-X-2-X-X-X-X
251: 1-1-X-2-1-1-1-2-1-1-1-1-1
252: 1-1-X-2-1-1-1-2-1-1-X-X-1
253: 1-1-X-2-1-1-1-2-1-X-1-1-X
254: 1-1-X-2-X-X-1-2-1-1-X-X-1
255: 1-1-X-2-X-X-1-2-1-X-1-1-X
256: 1-1-X-2-X-X-1-2-1-X-X-X-X
257: 1-1-X-2-1-X-1-2-X-1-X-1-X
258: 1-1-X-2-1-X-1-2-X-X-1-X-1
259: 1-1-X-2-X-1-1-2-X-1-X-1-X
260: 1-1-X-2-X-1-1-2-X-X-1-X-1
261: 1-1-X-2-1-X-1-2-2-1-1-X-X
262: 1-1-X-2-1-X-1-2-2-X-X-1-1
263: 1-1-X-2-X-1-1-2-2-1-1-X-X
264: 1-1-X-2-X-1-1-2-2-X-X-1-1
265: 1-1-2-1-1-1-1-1-1-1-X-X-X
266: 1-1-2-1-1-1-1-1-1-X-1-1-1
267: 1-1-2-1-X-X-1-1-1-1-X-X-X
268: 1-1-2-1-X-X-1-1-1-X-1-1-1
269: 1-1-2-1-1-X-1-1-X-1-1-1-X
270: 1-1-2-1-1-X-1-1-X-1-1-X-1
271: 1-1-2-1-1-X-1-1-X-X-X-1-X
272: 1-1-2-1-1-X-1-1-X-X-X-X-1
273: 1-1-2-1-X-1-1-1-X-1-1-X-1
274: 1-1-2-1-X-1-1-1-X-X-X-1-X
275: 1-1-2-1-1-1-1-1-2-1-X-1-1
276: 1-1-2-1-1-1-1-1-2-X-1-X-X
277: 1-1-2-1-X-X-1-1-2-1-X-1-1
278: 1-1-2-1-X-X-1-1-2-X-1-X-X
279: 1-1-2-1-1-1-1-X-1-1-1-X-1
280: 1-1-2-1-1-1-1-X-1-X-X-1-X
281: 1-1-2-1-X-X-1-X-1-1-1-X-1
282: 1-1-2-1-X-X-1-X-1-X-X-1-X
283: 1-1-2-1-1-1-1-X-X-1-X-1-1
284: 1-1-2-1-1-1-1-X-X-X-1-X-X
285: 1-1-2-1-X-X-1-X-X-1-X-1-1
286: 1-1-2-1-X-X-1-X-X-X-1-X-X
287: 1-1-2-1-1-X-1-X-2-1-1-1-X
288: 1-1-2-1-1-X-1-X-2-1-X-X-X
289: 1-1-2-1-1-X-1-X-2-X-1-1-1
290: 1-1-2-1-X-1-1-X-2-1-X-X-X
291: 1-1-2-1-X-1-1-X-2-X-1-1-1
292: 1-1-2-1-X-1-1-X-2-X-X-X-1
293: 1-1-2-1-1-X-1-2-1-1-X-1-1
294: 1-1-2-1-1-X-1-2-1-X-1-X-X
295: 1-1-2-1-1-X-1-2-1-X-X-X-1
296: 1-1-2-1-X-1-1-2-1-1-1-1-X
297: 1-1-2-1-X-1-1-2-1-1-X-1-1
298: 1-1-2-1-X-1-1-2-1-X-1-X-X
299: 1-1-2-1-1-1-1-2-X-1-X-X-X
300: 1-1-2-1-1-1-1-2-X-X-1-1-1
301: 1-1-2-1-X-X-1-2-X-1-X-X-X
302: 1-1-2-1-X-X-1-2-X-X-1-1-1
303: 1-1-2-1-1-1-1-2-2-1-1-X-1
304: 1-1-2-1-1-1-1-2-2-X-X-1-X
305: 1-1-2-1-X-X-1-2-2-1-1-X-1
306: 1-1-2-1-X-X-1-2-2-X-X-1-X
307: 1-1-2-X-1-X-1-1-1-1-X-X-1
308: 1-1-2-X-1-X-1-1-1-X-1-1-X
309: 1-1-2-X-X-1-1-1-1-1-X-X-1
310: 1-1-2-X-X-1-1-1-1-X-1-1-X
311: 1-1-2-X-1-1-1-1-X-1-1-1-1
312: 1-1-2-X-1-1-1-1-X-1-X-1-X
313: 1-1-2-X-1-1-1-1-X-X-1-X-1
314: 1-1-2-X-X-X-1-1-X-1-X-1-X
315: 1-1-2-X-X-X-1-1-X-X-1-X-1
316: 1-1-2-X-X-X-1-1-X-X-X-X-X
317: 1-1-2-X-1-X-1-1-2-1-1-X-X
318: 1-1-2-X-1-X-1-1-2-X-X-1-1
319: 1-1-2-X-X-1-1-1-2-1-1-X-X
320: 1-1-2-X-X-1-1-1-2-X-X-1-1
321: 1-1-2-X-1-X-1-X-1-1-X-1-X
322: 1-1-2-X-1-X-1-X-1-X-1-X-1
323: 1-1-2-X-X-1-1-X-1-1-X-1-X
324: 1-1-2-X-X-1-1-X-1-X-1-X-1
325: 1-1-2-X-1-X-1-X-X-1-1-X-X
326: 1-1-2-X-1-X-1-X-X-X-X-1-1
327: 1-1-2-X-X-1-1-X-X-1-1-X-X
328: 1-1-2-X-X-1-1-X-X-X-X-1-1
329: 1-1-2-X-1-1-1-X-2-1-1-1-1
330: 1-1-2-X-1-1-1-X-2-1-X-X-1
331: 1-1-2-X-1-1-1-X-2-X-1-1-X
332: 1-1-2-X-1-1-1-X-2-X-X-X-X
333: 1-1-2-X-X-X-1-X-2-1-X-X-1
334: 1-1-2-X-X-X-1-X-2-X-1-1-X
335: 1-1-2-X-1-1-1-2-1-1-1-X-X
336: 1-1-2-X-1-1-1-2-1-X-X-1-1
337: 1-1-2-X-X-X-1-2-1-1-1-1-1
338: 1-1-2-X-X-X-1-2-1-1-1-X-X
339: 1-1-2-X-X-X-1-2-1-X-X-1-1
340: 1-1-2-X-X-X-1-2-1-X-X-X-X
341: 1-1-2-X-1-X-1-2-X-1-X-X-1
342: 1-1-2-X-1-X-1-2-X-X-1-1-X
343: 1-1-2-X-X-1-1-2-X-1-X-X-1
344: 1-1-2-X-X-1-1-2-X-X-1-1-X
345: 1-1-2-X-1-X-1-2-2-1-X-1-X
346: 1-1-2-X-1-X-1-2-2-X-1-X-1
347: 1-1-2-X-X-1-1-2-2-1-X-1-X
348: 1-1-2-X-X-1-1-2-2-X-1-X-1
349: 1-1-2-2-1-1-1-1-1-1-1-1-X
350: 1-1-2-2-X-X-1-1-1-1-1-1-X
351: 1-1-2-2-X-X-1-1-1-X-X-X-1
352: 1-1-2-2-1-1-1-1-X-1-X-X-1
353: 1-1-2-2-1-1-1-1-X-X-1-X-1
354: 1-1-2-2-1-1-1-1-X-X-X-1-1
355: 1-1-2-2-1-X-1-1-X-1-X-X-X
356: 1-1-2-2-1-X-1-1-X-X-1-X-X
357: 1-1-2-2-1-X-1-1-X-X-X-1-X
358: 1-1-2-2-1-X-1-1-X-X-X-X-1
359: 1-1-2-2-X-1-1-1-X-1-1-X-1
360: 1-1-2-2-X-1-1-1-X-1-X-1-1
361: 1-1-2-2-X-1-1-1-X-X-1-1-1
362: 1-1-2-2-1-X-1-1-2-1-1-1-1
363: 1-1-2-2-X-1-1-1-2-1-1-1-X
364: 1-1-2-2-X-1-1-1-2-X-X-X-X
365: 1-1-2-2-1-1-1-X-1-X-X-X-1
366: 1-1-2-2-1-X-1-X-1-X-X-X-X
367: 1-1-2-2-X-1-1-X-1-1-1-1-1
368: 1-1-2-2-1-X-1-X-X-1-1-1-1
369: 1-1-2-2-X-1-1-X-X-1-1-1-X
370: 1-1-2-2-X-1-1-X-X-X-X-X-X
371: 1-1-2-2-1-1-1-X-2-1-1-X-X
372: 1-1-2-2-1-1-1-X-2-1-X-1-X
373: 1-1-2-2-1-1-1-X-2-X-1-1-X
374: 1-1-2-2-X-1-1-X-2-1-1-1-X
375: 1-1-2-2-X-X-1-X-2-1-1-X-X
376: 1-1-2-2-X-X-1-X-2-1-X-1-X
377: 1-1-2-2-X-X-1-X-2-1-X-X-1
378: 1-1-2-2-X-X-1-X-2-X-1-1-X
379: 1-1-2-2-X-X-1-X-2-X-1-X-1
380: 1-1-2-2-X-X-1-X-2-X-X-1-1
381: 1-1-2-2-1-1-1-2-1-X-X-X-X
382: 1-1-2-2-1-X-1-2-1-1-1-1-X
383: 1-1-2-2-1-X-1-2-1-1-1-X-1
384: 1-1-2-2-1-X-1-2-1-1-X-1-1
385: 1-1-2-2-1-X-1-2-1-X-1-1-1
386: 1-1-2-2-X-1-1-2-1-1-X-X-X
387: 1-1-2-2-X-1-1-2-1-X-1-X-X
388: 1-1-2-2-X-1-1-2-1-X-X-1-X
389: 1-1-2-2-1-1-1-2-X-1-1-1-X
390: 1-1-2-2-X-X-1-2-X-1-1-1-X
391: 1-1-2-2-X-X-1-2-X-X-X-X-1
392: 1-1-2-2-1-1-1-2-2-X-X-X-1
393: 1-1-2-2-1-X-1-2-2-X-X-X-X
394: 1-1-2-2-X-1-1-2-2-1-1-1-1
395: X-1-1-1-1-1-1-1-1-1-1-1-X
396: X-1-1-1-1-X-1-1-1-1-1-1-X
397: X-1-1-1-X-X-1-1-1-1-1-1-X
398: X-1-1-1-X-X-1-1-1-X-X-X-1
399: X-1-1-1-1-1-1-1-X-1-X-X-1
400: X-1-1-1-1-1-1-1-X-X-1-X-1
401: X-1-1-1-1-1-1-1-X-X-X-1-1
402: X-1-1-1-1-X-1-1-X-1-X-X-X
403: X-1-1-1-1-X-1-1-X-X-1-X-X
404: X-1-1-1-1-X-1-1-X-X-X-1-X
405: X-1-1-1-1-X-1-1-X-X-X-X-1
406: X-1-1-1-X-1-1-1-X-1-1-X-1
407: X-1-1-1-X-1-1-1-X-1-X-1-1
408: X-1-1-1-X-1-1-1-X-X-1-1-1
409: X-1-1-1-1-X-1-1-2-1-1-1-1
410: X-1-1-1-X-1-1-1-2-X-X-X-X
411: X-1-1-1-1-1-1-X-1-X-X-X-1
412: X-1-1-1-1-X-1-X-1-X-X-X-X
413: X-1-1-1-X-1-1-X-1-1-1-1-1
414: X-1-1-1-1-X-1-X-X-1-1-1-1
415: X-1-1-1-X-1-1-X-X-X-X-X-X
416: X-1-1-1-1-1-1-X-2-1-1-X-X
417: X-1-1-1-1-1-1-X-2-1-X-1-X
418: X-1-1-1-1-1-1-X-2-X-1-1-X
419: X-1-1-1-X-1-1-X-2-1-1-1-X
420: X-1-1-1-X-X-1-X-2-1-1-X-X
421: X-1-1-1-X-X-1-X-2-1-X-1-X
422: X-1-1-1-X-X-1-X-2-1-X-X-1
423: X-1-1-1-X-X-1-X-2-X-1-1-X
424: X-1-1-1-X-X-1-X-2-X-1-X-1
425: X-1-1-1-X-X-1-X-2-X-X-1-1
426: X-1-1-1-1-1-1-2-1-X-X-X-X
427: X-1-1-1-1-X-1-2-1-1-1-1-X
428: X-1-1-1-1-X-1-2-1-1-1-X-1
429: X-1-1-1-1-X-1-2-1-1-X-1-1
430: X-1-1-1-1-X-1-2-1-X-1-1-1
431: X-1-1-1-X-1-1-2-1-1-X-X-X
432: X-1-1-1-X-1-1-2-1-X-1-X-X
433: X-1-1-1-X-1-1-2-1-X-X-1-X
434: X-1-1-1-1-1-1-2-X-1-1-1-X
435: X-1-1-1-1-X-1-2-X-1-1-1-X
436: X-1-1-1-X-X-1-2-X-1-1-1-X
437: X-1-1-1-X-X-1-2-X-X-X-X-1
438: X-1-1-1-1-1-1-2-2-X-X-X-1
439: X-1-1-1-1-X-1-2-2-X-X-X-X
440: X-1-1-1-X-1-1-2-2-1-1-1-1
441: X-1-1-X-1-1-1-1-1-1-X-X-X
442: X-1-1-X-1-1-1-1-1-X-1-1-1
443: X-1-1-X-X-X-1-1-1-1-X-X-X
444: X-1-1-X-X-X-1-1-1-X-1-1-1
445: X-1-1-X-1-X-1-1-X-1-1-X-1
446: X-1-1-X-1-X-1-1-X-X-X-1-X
447: X-1-1-X-X-1-1-1-X-1-1-1-X
448: X-1-1-X-X-1-1-1-X-1-1-X-1
449: X-1-1-X-X-1-1-1-X-X-X-1-X
450: X-1-1-X-X-1-1-1-X-X-X-X-1
451: X-1-1-X-1-1-1-1-2-1-X-1-1
452: X-1-1-X-1-1-1-1-2-X-1-X-X
453: X-1-1-X-X-X-1-1-2-1-X-1-1
454: X-1-1-X-X-X-1-1-2-X-1-X-X
455: X-1-1-X-1-1-1-X-1-1-1-X-1
456: X-1-1-X-1-1-1-X-1-X-X-1-X
457: X-1-1-X-X-X-1-X-1-1-1-X-1
458: X-1-1-X-X-X-1-X-1-X-X-1-X
459: X-1-1-X-1-1-1-X-X-1-X-1-1
460: X-1-1-X-1-1-1-X-X-X-1-X-X
461: X-1-1-X-X-X-1-X-X-1-X-1-1
462: X-1-1-X-X-X-1-X-X-X-1-X-X
463: X-1-1-X-1-X-1-X-2-1-1-1-X
464: X-1-1-X-1-X-1-X-2-1-X-X-X
465: X-1-1-X-1-X-1-X-2-X-1-1-1
466: X-1-1-X-X-1-1-X-2-1-X-X-X
467: X-1-1-X-X-1-1-X-2-X-1-1-1
468: X-1-1-X-X-1-1-X-2-X-X-X-1
469: X-1-1-X-1-X-1-2-1-1-X-1-1
470: X-1-1-X-1-X-1-2-1-X-1-X-X
471: X-1-1-X-1-X-1-2-1-X-X-X-1
472: X-1-1-X-X-1-1-2-1-1-1-1-X
473: X-1-1-X-X-1-1-2-1-1-X-1-1
474: X-1-1-X-X-1-1-2-1-X-1-X-X
475: X-1-1-X-1-1-1-2-X-1-X-X-X
476: X-1-1-X-1-1-1-2-X-X-1-1-1
477: X-1-1-X-X-X-1-2-X-1-X-X-X
478: X-1-1-X-X-X-1-2-X-X-1-1-1
479: X-1-1-X-1-1-1-2-2-1-1-X-1
480: X-1-1-X-1-1-1-2-2-X-X-1-X
481: X-1-1-X-X-X-1-2-2-1-1-X-1
482: X-1-1-X-X-X-1-2-2-X-X-1-X
483: X-1-1-2-1-X-1-1-1-1-X-X-1
484: X-1-1-2-1-X-1-1-1-X-1-1-X
485: X-1-1-2-X-1-1-1-1-1-X-X-1
486: X-1-1-2-X-1-1-1-1-X-1-1-X
487: X-1-1-2-1-1-1-1-X-1-X-1-X
488: X-1-1-2-1-1-1-1-X-X-1-X-1
489: X-1-1-2-1-1-1-1-X-X-X-X-X
490: X-1-1-2-X-X-1-1-X-1-1-1-1
491: X-1-1-2-X-X-1-1-X-1-X-1-X
492: X-1-1-2-X-X-1-1-X-X-1-X-1
493: X-1-1-2-1-X-1-1-2-1-1-X-X
494: X-1-1-2-1-X-1-1-2-X-X-1-1
495: X-1-1-2-X-1-1-1-2-1-1-X-X
496: X-1-1-2-X-1-1-1-2-X-X-1-1
497: X-1-1-2-1-X-1-X-1-1-X-1-X
498: X-1-1-2-1-X-1-X-1-X-1-X-1
499: X-1-1-2-X-1-1-X-1-1-X-1-X
500: X-1-1-2-X-1-1-X-1-X-1-X-1
501: X-1-1-2-1-X-1-X-X-1-1-X-X
502: X-1-1-2-1-X-1-X-X-X-X-1-1
503: X-1-1-2-X-1-1-X-X-1-1-X-X
504: X-1-1-2-X-1-1-X-X-X-X-1-1
505: X-1-1-2-1-1-1-X-2-1-1-1-1
506: X-1-1-2-1-1-1-X-2-1-X-X-1
507: X-1-1-2-1-1-1-X-2-X-1-1-X
508: X-1-1-2-X-X-1-X-2-1-1-1-1
509: X-1-1-2-X-X-1-X-2-1-X-X-1
510: X-1-1-2-X-X-1-X-2-X-1-1-X
511: X-1-1-2-X-X-1-X-2-X-X-X-X
512: X-1-1-2-1-1-1-2-1-1-1-1-1
513: X-1-1-2-1-1-1-2-1-1-1-X-X
514: X-1-1-2-1-1-1-2-1-X-X-1-1
515: X-1-1-2-1-1-1-2-1-X-X-X-X
516: X-1-1-2-X-X-1-2-1-1-1-X-X
517: X-1-1-2-X-X-1-2-1-X-X-1-1
518: X-1-1-2-X-X-1-2-1-X-X-X-X
519: X-1-1-2-1-X-1-2-X-1-X-X-1
520: X-1-1-2-1-X-1-2-X-X-1-1-X
521: X-1-1-2-X-1-1-2-X-1-X-X-1
522: X-1-1-2-X-1-1-2-X-X-1-1-X
523: X-1-1-2-1-X-1-2-2-1-X-1-X
524: X-1-1-2-1-X-1-2-2-X-1-X-1
525: X-1-1-2-X-1-1-2-2-1-X-1-X
526: X-1-1-2-X-1-1-2-2-X-1-X-1
527: X-1-X-1-1-1-1-1-1-1-X-1-1
528: X-1-X-1-1-1-1-1-1-X-1-X-X
529: X-1-X-1-X-X-1-1-1-1-X-1-1
530: X-1-X-1-X-X-1-1-1-X-1-X-X
531: X-1-X-1-1-X-1-1-X-1-X-X-X
532: X-1-X-1-1-X-1-1-X-X-1-1-1
533: X-1-X-1-1-X-1-1-X-X-X-X-1
534: X-1-X-1-X-1-1-1-X-1-1-1-X
535: X-1-X-1-X-1-1-1-X-1-X-X-X
536: X-1-X-1-X-1-1-1-X-X-1-1-1
537: X-1-X-1-1-1-1-1-2-1-1-X-1
538: X-1-X-1-1-1-1-1-2-X-X-1-X
539: X-1-X-1-X-X-1-1-2-1-1-X-1
540: X-1-X-1-X-X-1-1-2-X-X-1-X
541: X-1-X-1-1-1-1-X-1-1-X-X-X
542: X-1-X-1-1-1-1-X-1-X-1-1-1
543: X-1-X-1-X-X-1-X-1-1-X-X-X
544: X-1-X-1-X-X-1-X-1-X-1-1-1
545: X-1-X-1-1-1-1-X-X-1-1-X-1
546: X-1-X-1-1-1-1-X-X-X-X-1-X
547: X-1-X-1-X-X-1-X-X-1-1-X-1
548: X-1-X-1-X-X-1-X-X-X-X-1-X
549: X-1-X-1-1-X-1-X-2-1-1-1-X
550: X-1-X-1-1-X-1-X-2-1-X-1-1
551: X-1-X-1-1-X-1-X-2-X-1-X-X
552: X-1-X-1-1-X-1-X-2-X-X-X-1
553: X-1-X-1-X-1-1-X-2-1-X-1-1
554: X-1-X-1-X-1-1-X-2-X-1-X-X
555: X-1-X-1-1-X-1-2-1-1-1-X-1
556: X-1-X-1-1-X-1-2-1-X-X-1-X
557: X-1-X-1-X-1-1-2-1-1-1-1-X
558: X-1-X-1-X-1-1-2-1-1-1-X-1
559: X-1-X-1-X-1-1-2-1-X-X-1-X
560: X-1-X-1-X-1-1-2-1-X-X-X-1
561: X-1-X-1-1-1-1-2-X-1-X-1-1
562: X-1-X-1-1-1-1-2-X-X-1-X-X
563: X-1-X-1-X-X-1-2-X-1-X-1-1
564: X-1-X-1-X-X-1-2-X-X-1-X-X
565: X-1-X-1-1-1-1-2-2-1-X-X-X
566: X-1-X-1-1-1-1-2-2-X-1-1-1
567: X-1-X-1-X-X-1-2-2-1-X-X-X
568: X-1-X-1-X-X-1-2-2-X-1-1-1
569: X-1-X-X-1-X-1-1-1-1-1-X-X
570: X-1-X-X-1-X-1-1-1-X-X-1-1
571: X-1-X-X-X-1-1-1-1-1-1-X-X
572: X-1-X-X-X-1-1-1-1-X-X-1-1
573: X-1-X-X-1-1-1-1-X-1-1-1-1
574: X-1-X-X-1-1-1-1-X-1-X-X-1
575: X-1-X-X-1-1-1-1-X-X-1-1-X
576: X-1-X-X-X-X-1-1-X-1-X-X-1
577: X-1-X-X-X-X-1-1-X-X-1-1-X
578: X-1-X-X-X-X-1-1-X-X-X-X-X
579: X-1-X-X-1-X-1-1-2-1-X-1-X
580: X-1-X-X-1-X-1-1-2-X-1-X-1
581: X-1-X-X-X-1-1-1-2-1-X-1-X
582: X-1-X-X-X-1-1-1-2-X-1-X-1
583: X-1-X-X-1-X-1-X-1-1-X-X-1
584: X-1-X-X-1-X-1-X-1-X-1-1-X
585: X-1-X-X-X-1-1-X-1-1-X-X-1
586: X-1-X-X-X-1-1-X-1-X-1-1-X
587: X-1-X-X-1-X-1-X-X-1-X-1-X
588: X-1-X-X-1-X-1-X-X-X-1-X-1
589: X-1-X-X-X-1-1-X-X-1-X-1-X
590: X-1-X-X-X-1-1-X-X-X-1-X-1
591: X-1-X-X-1-1-1-X-2-1-1-1-1
592: X-1-X-X-1-1-1-X-2-1-1-X-X
593: X-1-X-X-1-1-1-X-2-X-X-1-1
594: X-1-X-X-1-1-1-X-2-X-X-X-X
595: X-1-X-X-X-X-1-X-2-1-1-X-X
596: X-1-X-X-X-X-1-X-2-X-X-1-1
597: X-1-X-X-1-1-1-2-1-1-X-1-X
598: X-1-X-X-1-1-1-2-1-X-1-X-1
599: X-1-X-X-X-X-1-2-1-1-1-1-1
600: X-1-X-X-X-X-1-2-1-1-X-1-X
601: X-1-X-X-X-X-1-2-1-X-1-X-1
602: X-1-X-X-X-X-1-2-1-X-X-X-X
603: X-1-X-X-1-X-1-2-X-1-1-X-X
604: X-1-X-X-1-X-1-2-X-X-X-1-1
605: X-1-X-X-X-1-1-2-X-1-1-X-X
606: X-1-X-X-X-1-1-2-X-X-X-1-1
607: X-1-X-X-1-X-1-2-2-1-X-X-1
608: X-1-X-X-1-X-1-2-2-X-1-1-X
609: X-1-X-X-X-1-1-2-2-1-X-X-1
610: X-1-X-X-X-1-1-2-2-X-1-1-X
611: X-1-X-2-1-X-1-1-1-X-X-X-X
612: X-1-X-2-X-1-1-1-1-1-1-1-1
613: X-1-X-2-1-X-1-1-X-1-1-1-X
614: X-1-X-2-1-X-1-1-X-1-1-X-1
615: X-1-X-2-1-X-1-1-X-1-X-1-1
616: X-1-X-2-1-X-1-1-X-X-1-1-1
617: X-1-X-2-X-1-1-1-X-1-X-X-X
618: X-1-X-2-X-1-1-1-X-X-1-X-X
619: X-1-X-2-X-1-1-1-X-X-X-1-X
620: X-1-X-2-X-X-1-1-X-1-1-1-1
621: X-1-X-2-X-X-1-1-X-1-1-X-X
622: X-1-X-2-X-X-1-1-X-1-X-1-X
623: X-1-X-2-X-X-1-1-X-X-1-1-X
624: X-1-X-2-1-1-1-1-2-1-1-1-X
625: X-1-X-2-1-1-1-1-2-X-X-X-1
626: X-1-X-2-X-1-1-1-2-X-X-X-1
627: X-1-X-2-X-X-1-1-2-X-X-X-1
628: X-1-X-2-1-X-1-X-1-1-1-1-1
629: X-1-X-2-X-1-1-X-1-X-X-X-X
630: X-1-X-2-X-X-1-X-1-1-1-1-X
631: X-1-X-2-1-1-1-X-X-1-1-1-X
632: X-1-X-2-1-1-1-X-X-X-X-X-1
633: X-1-X-2-X-1-1-X-X-X-X-X-1
634: X-1-X-2-X-X-1-X-X-X-X-X-1
635: X-1-X-2-1-X-1-X-2-1-X-X-X
636: X-1-X-2-1-X-1-X-2-X-1-X-X
637: X-1-X-2-1-X-1-X-2-X-X-1-X
638: X-1-X-2-X-1-1-X-2-1-1-X-1
639: X-1-X-2-X-1-1-X-2-1-X-1-1
640: X-1-X-2-X-1-1-X-2-X-1-1-1
641: X-1-X-2-X-1-1-X-2-X-X-X-1
642: X-1-X-2-1-1-1-2-1-1-1-X-X
643: X-1-X-2-1-1-1-2-1-1-X-1-X
644: X-1-X-2-1-1-1-2-1-1-X-X-1
645: X-1-X-2-1-1-1-2-1-X-1-1-X
646: X-1-X-2-1-1-1-2-1-X-1-X-1
647: X-1-X-2-1-1-1-2-1-X-X-1-1
648: X-1-X-2-1-X-1-2-1-X-X-X-1
649: X-1-X-2-X-X-1-2-1-1-X-X-1
650: X-1-X-2-X-X-1-2-1-X-1-X-1
651: X-1-X-2-X-X-1-2-1-X-X-1-1
652: X-1-X-2-1-X-1-2-X-X-X-X-X
653: X-1-X-2-X-1-1-2-X-1-1-1-1
654: X-1-X-2-1-X-1-2-2-1-1-1-1
655: X-1-X-2-X-1-1-2-2-X-X-X-X
656: X-1-X-2-X-X-1-2-2-1-1-1-X
657: X-1-2-1-1-X-1-1-1-1-X-1-X
658: X-1-2-1-1-X-1-1-1-X-1-X-1
659: X-1-2-1-X-1-1-1-1-1-X-1-X
660: X-1-2-1-X-1-1-1-1-X-1-X-1
661: X-1-2-1-1-1-1-1-X-1-1-1-1
662: X-1-2-1-1-1-1-1-X-1-1-X-X
663: X-1-2-1-1-1-1-1-X-X-X-1-1
664: X-1-2-1-X-X-1-1-X-1-1-X-X
665: X-1-2-1-X-X-1-1-X-X-X-1-1
666: X-1-2-1-X-X-1-1-X-X-X-X-X
667: X-1-2-1-1-X-1-1-2-1-X-X-1
668: X-1-2-1-1-X-1-1-2-X-1-1-X
669: X-1-2-1-X-1-1-1-2-1-X-X-1
670: X-1-2-1-X-1-1-1-2-X-1-1-X
671: X-1-2-1-1-X-1-X-1-1-1-X-X
672: X-1-2-1-1-X-1-X-1-X-X-1-1
673: X-1-2-1-X-1-1-X-1-1-1-X-X
674: X-1-2-1-X-1-1-X-1-X-X-1-1
675: X-1-2-1-1-X-1-X-X-1-X-X-1
676: X-1-2-1-1-X-1-X-X-X-1-1-X
677: X-1-2-1-X-1-1-X-X-1-X-X-1
678: X-1-2-1-X-1-1-X-X-X-1-1-X
679: X-1-2-1-1-1-1-X-2-1-1-1-1
680: X-1-2-1-1-1-1-X-2-1-X-1-X
681: X-1-2-1-1-1-1-X-2-X-1-X-1
682: X-1-2-1-1-1-1-X-2-X-X-X-X
683: X-1-2-1-X-X-1-X-2-1-X-1-X
684: X-1-2-1-X-X-1-X-2-X-1-X-1
685: X-1-2-1-1-1-1-2-1-1-X-X-1
686: X-1-2-1-1-1-1-2-1-X-1-1-X
687: X-1-2-1-X-X-1-2-1-1-1-1-1
688: X-1-2-1-X-X-1-2-1-1-X-X-1
689: X-1-2-1-X-X-1-2-1-X-1-1-X
690: X-1-2-1-X-X-1-2-1-X-X-X-X
691: X-1-2-1-1-X-1-2-X-1-X-1-X
692: X-1-2-1-1-X-1-2-X-X-1-X-1
693: X-1-2-1-X-1-1-2-X-1-X-1-X
694: X-1-2-1-X-1-1-2-X-X-1-X-1
695: X-1-2-1-1-X-1-2-2-1-1-X-X
696: X-1-2-1-1-X-1-2-2-X-X-1-1
697: X-1-2-1-X-1-1-2-2-1-1-X-X
698: X-1-2-1-X-1-1-2-2-X-X-1-1
699: X-1-2-X-1-1-1-1-1-X-X-X-1
700: X-1-2-X-1-1-1-1-1-X-X-X-X
701: X-1-2-X-1-X-1-1-1-1-1-1-1
702: X-1-2-X-X-1-1-1-1-X-X-X-X
703: X-1-2-X-1-1-1-1-X-1-1-X-X
704: X-1-2-X-1-1-1-1-X-1-X-1-X
705: X-1-2-X-1-1-1-1-X-X-1-1-X
706: X-1-2-X-1-1-1-1-X-X-X-X-X
707: X-1-2-X-X-1-1-1-X-1-1-1-X
708: X-1-2-X-X-1-1-1-X-X-X-X-1
709: X-1-2-X-X-X-1-1-X-1-X-X-1
710: X-1-2-X-X-X-1-1-X-X-1-X-1
711: X-1-2-X-X-X-1-1-X-X-X-1-1
712: X-1-2-X-1-X-1-1-2-X-X-X-X
713: X-1-2-X-X-1-1-1-2-1-1-1-1
714: X-1-2-X-X-X-1-1-2-1-1-1-1
715: X-1-2-X-X-X-1-1-2-1-1-1-X
716: X-1-2-X-1-1-1-X-1-1-1-1-X
717: X-1-2-X-X-X-1-X-1-X-X-X-1
718: X-1-2-X-1-X-1-X-X-X-X-X-X
719: X-1-2-X-X-1-1-X-X-1-1-1-1
720: X-1-2-X-X-X-1-X-X-1-1-1-1
721: X-1-2-X-X-X-1-X-X-1-1-1-X
722: X-1-2-X-1-1-1-X-2-1-X-X-1
723: X-1-2-X-1-1-1-X-2-X-1-X-1
724: X-1-2-X-1-1-1-X-2-X-X-1-1
725: X-1-2-X-1-X-1-X-2-1-1-X-1
726: X-1-2-X-1-X-1-X-2-1-X-1-1
727: X-1-2-X-1-X-1-X-2-X-1-1-1
728: X-1-2-X-X-1-1-X-2-1-X-X-X
729: X-1-2-X-X-1-1-X-2-X-1-X-X
730: X-1-2-X-X-1-1-X-2-X-X-1-X
731: X-1-2-X-X-X-1-X-2-1-1-1-1
732: X-1-2-X-X-X-1-X-2-X-X-X-X
733: X-1-2-X-1-1-1-2-1-1-1-1-1
734: X-1-2-X-1-X-1-2-1-1-X-X-X
735: X-1-2-X-1-X-1-2-1-X-1-X-X
736: X-1-2-X-1-X-1-2-1-X-X-1-X
737: X-1-2-X-X-1-1-2-1-1-1-X-1
738: X-1-2-X-X-1-1-2-1-1-X-1-1
739: X-1-2-X-X-1-1-2-1-X-1-1-1
740: X-1-2-X-X-X-1-2-1-1-1-X-X
741: X-1-2-X-X-X-1-2-1-1-X-1-X
742: X-1-2-X-X-X-1-2-1-X-1-1-X
743: X-1-2-X-1-1-1-2-X-X-X-X-1
744: X-1-2-X-1-1-1-2-X-X-X-X-X
745: X-1-2-X-1-X-1-2-X-1-1-1-1
746: X-1-2-X-X-1-1-2-X-X-X-X-X
747: X-1-2-X-1-1-1-2-2-1-1-1-X
748: X-1-2-X-X-X-1-2-2-X-X-X-1
749: X-1-2-2-1-1-1-1-1-1-1-X-1
750: X-1-2-2-1-1-1-1-1-X-X-1-X
751: X-1-2-2-X-X-1-1-1-1-1-X-1
752: X-1-2-2-X-X-1-1-1-X-X-1-X
753: X-1-2-2-1-X-1-1-X-1-1-1-X
754: X-1-2-2-1-X-1-1-X-1-X-1-1
755: X-1-2-2-1-X-1-1-X-X-1-X-X
756: X-1-2-2-1-X-1-1-X-X-X-X-1
757: X-1-2-2-X-1-1-1-X-1-X-1-1
758: X-1-2-2-X-1-1-1-X-X-1-X-X
759: X-1-2-2-1-1-1-1-2-1-X-X-X
760: X-1-2-2-1-1-1-1-2-X-1-1-1
761: X-1-2-2-X-X-1-1-2-1-X-X-X
762: X-1-2-2-X-X-1-1-2-X-1-1-1
763: X-1-2-2-1-1-1-X-1-1-X-1-1
764: X-1-2-2-1-1-1-X-1-X-1-X-X
765: X-1-2-2-X-X-1-X-1-1-X-1-1
766: X-1-2-2-X-X-1-X-1-X-1-X-X
767: X-1-2-2-1-1-1-X-X-1-X-X-X
768: X-1-2-2-1-1-1-X-X-X-1-1-1
769: X-1-2-2-X-X-1-X-X-1-X-X-X
770: X-1-2-2-X-X-1-X-X-X-1-1-1
771: X-1-2-2-1-X-1-X-2-1-1-1-X
772: X-1-2-2-1-X-1-X-2-1-1-X-1
773: X-1-2-2-1-X-1-X-2-X-X-1-X
774: X-1-2-2-1-X-1-X-2-X-X-X-1
775: X-1-2-2-X-1-1-X-2-1-1-X-1
776: X-1-2-2-X-1-1-X-2-X-X-1-X
777: X-1-2-2-1-X-1-2-1-1-X-X-X
778: X-1-2-2-1-X-1-2-1-X-1-1-1
779: X-1-2-2-X-1-1-2-1-1-1-1-X
780: X-1-2-2-X-1-1-2-1-1-X-X-X
781: X-1-2-2-X-1-1-2-1-X-1-1-1
782: X-1-2-2-X-1-1-2-1-X-X-X-1
783: X-1-2-2-1-1-1-2-X-1-1-X-1
784: X-1-2-2-1-1-1-2-X-X-X-1-X
785: X-1-2-2-X-X-1-2-X-1-1-X-1
786: X-1-2-2-X-X-1-2-X-X-X-1-X
787: X-1-2-2-1-1-1-2-2-1-X-1-1
788: X-1-2-2-1-1-1-2-2-X-1-X-X
789: X-1-2-2-X-X-1-2-2-1-X-1-1
790: X-1-2-2-X-X-1-2-2-X-1-X-X
791: 2-1-1-1-1-1-1-1-1-1-1-X-1
792: 2-1-1-1-1-1-1-1-1-X-X-1-X
793: 2-1-1-1-X-X-1-1-1-1-1-X-1
794: 2-1-1-1-X-X-1-1-1-X-X-1-X
795: 2-1-1-1-1-X-1-1-X-1-X-1-1
796: 2-1-1-1-1-X-1-1-X-X-1-X-X
797: 2-1-1-1-1-X-1-1-X-X-X-X-1
798: 2-1-1-1-X-1-1-1-X-1-1-1-X
799: 2-1-1-1-X-1-1-1-X-1-X-1-1
800: 2-1-1-1-X-1-1-1-X-X-1-X-X
801: 2-1-1-1-1-1-1-1-2-1-X-X-X
802: 2-1-1-1-1-1-1-1-2-X-1-1-1
803: 2-1-1-1-X-X-1-1-2-1-X-X-X
804: 2-1-1-1-X-X-1-1-2-X-1-1-1
805: 2-1-1-1-1-1-1-X-1-1-X-1-1
806: 2-1-1-1-1-1-1-X-1-X-1-X-X
807: 2-1-1-1-X-X-1-X-1-1-X-1-1
808: 2-1-1-1-X-X-1-X-1-X-1-X-X
809: 2-1-1-1-1-1-1-X-X-1-X-X-X
810: 2-1-1-1-1-1-1-X-X-X-1-1-1
811: 2-1-1-1-X-X-1-X-X-1-X-X-X
812: 2-1-1-1-X-X-1-X-X-X-1-1-1
813: 2-1-1-1-1-X-1-X-2-1-1-1-X
814: 2-1-1-1-1-X-1-X-2-1-1-X-1
815: 2-1-1-1-1-X-1-X-2-X-X-1-X
816: 2-1-1-1-X-1-1-X-2-1-1-X-1
817: 2-1-1-1-X-1-1-X-2-X-X-1-X
818: 2-1-1-1-X-1-1-X-2-X-X-X-1
819: 2-1-1-1-1-X-1-2-1-1-X-X-X
820: 2-1-1-1-1-X-1-2-1-X-1-1-1
821: 2-1-1-1-1-X-1-2-1-X-X-X-1
822: 2-1-1-1-X-1-1-2-1-1-1-1-X
823: 2-1-1-1-X-1-1-2-1-1-X-X-X
824: 2-1-1-1-X-1-1-2-1-X-1-1-1
825: 2-1-1-1-1-1-1-2-X-1-1-X-1
826: 2-1-1-1-1-1-1-2-X-X-X-1-X
827: 2-1-1-1-X-X-1-2-X-1-1-X-1
828: 2-1-1-1-X-X-1-2-X-X-X-1-X
829: 2-1-1-1-1-1-1-2-2-1-X-1-1
830: 2-1-1-1-1-1-1-2-2-X-1-X-X
831: 2-1-1-1-X-X-1-2-2-1-X-1-1
832: 2-1-1-1-X-X-1-2-2-X-1-X-X
833: 2-1-1-X-1-X-1-1-1-1-X-1-X
834: 2-1-1-X-1-X-1-1-1-X-1-X-1
835: 2-1-1-X-X-1-1-1-1-1-X-1-X
836: 2-1-1-X-X-1-1-1-1-X-1-X-1
837: 2-1-1-X-1-1-1-1-X-1-1-X-X
838: 2-1-1-X-1-1-1-1-X-X-X-1-1
839: 2-1-1-X-1-1-1-1-X-X-X-X-X
840: 2-1-1-X-X-X-1-1-X-1-1-1-1
841: 2-1-1-X-X-X-1-1-X-1-1-X-X
842: 2-1-1-X-X-X-1-1-X-X-X-1-1
843: 2-1-1-X-1-X-1-1-2-1-X-X-1
844: 2-1-1-X-1-X-1-1-2-X-1-1-X
845: 2-1-1-X-X-1-1-1-2-1-X-X-1
846: 2-1-1-X-X-1-1-1-2-X-1-1-X
847: 2-1-1-X-1-X-1-X-1-1-1-X-X
848: 2-1-1-X-1-X-1-X-1-X-X-1-1
849: 2-1-1-X-X-1-1-X-1-1-1-X-X
850: 2-1-1-X-X-1-1-X-1-X-X-1-1
851: 2-1-1-X-1-X-1-X-X-1-X-X-1
852: 2-1-1-X-1-X-1-X-X-X-1-1-X
853: 2-1-1-X-X-1-1-X-X-1-X-X-1
854: 2-1-1-X-X-1-1-X-X-X-1-1-X
855: 2-1-1-X-1-1-1-X-2-1-1-1-1
856: 2-1-1-X-1-1-1-X-2-1-X-1-X
857: 2-1-1-X-1-1-1-X-2-X-1-X-1
858: 2-1-1-X-X-X-1-X-2-1-1-1-1
859: 2-1-1-X-X-X-1-X-2-1-X-1-X
860: 2-1-1-X-X-X-1-X-2-X-1-X-1
861: 2-1-1-X-X-X-1-X-2-X-X-X-X
862: 2-1-1-X-1-1-1-2-1-1-1-1-1
863: 2-1-1-X-1-1-1-2-1-1-X-X-1
864: 2-1-1-X-1-1-1-2-1-X-1-1-X
865: 2-1-1-X-1-1-1-2-1-X-X-X-X
866: 2-1-1-X-X-X-1-2-1-1-X-X-1
867: 2-1-1-X-X-X-1-2-1-X-1-1-X
868: 2-1-1-X-X-X-1-2-1-X-X-X-X
869: 2-1-1-X-1-X-1-2-X-1-X-1-X
870: 2-1-1-X-1-X-1-2-X-X-1-X-1
871: 2-1-1-X-X-1-1-2-X-1-X-1-X
872: 2-1-1-X-X-1-1-2-X-X-1-X-1
873: 2-1-1-X-1-X-1-2-2-1-1-X-X
874: 2-1-1-X-1-X-1-2-2-X-X-1-1
875: 2-1-1-X-X-1-1-2-2-1-1-X-X
876: 2-1-1-X-X-1-1-2-2-X-X-1-1
877: 2-1-1-2-1-1-1-1-1-X-X-X-1
878: 2-1-1-2-1-X-1-1-1-1-1-1-1
879: 2-1-1-2-X-1-1-1-1-X-X-X-X
880: 2-1-1-2-1-1-1-1-X-1-1-1-1
881: 2-1-1-2-1-1-1-1-X-1-1-X-X
882: 2-1-1-2-1-1-1-1-X-1-X-1-X
883: 2-1-1-2-1-1-1-1-X-X-1-1-X
884: 2-1-1-2-X-1-1-1-X-1-1-1-X
885: 2-1-1-2-X-1-1-1-X-X-X-X-1
886: 2-1-1-2-X-X-1-1-X-1-X-X-1
887: 2-1-1-2-X-X-1-1-X-X-1-X-1
888: 2-1-1-2-X-X-1-1-X-X-X-1-1
889: 2-1-1-2-X-X-1-1-X-X-X-X-X
890: 2-1-1-2-1-X-1-1-2-X-X-X-X
891: 2-1-1-2-X-1-1-1-2-1-1-1-1
892: 2-1-1-2-X-X-1-1-2-1-1-1-X
893: 2-1-1-2-1-1-1-X-1-1-1-1-X
894: 2-1-1-2-X-X-1-X-1-X-X-X-1
895: 2-1-1-2-1-X-1-X-X-X-X-X-X
896: 2-1-1-2-X-1-1-X-X-1-1-1-1
897: 2-1-1-2-X-X-1-X-X-1-1-1-X
898: 2-1-1-2-1-1-1-X-2-1-X-X-1
899: 2-1-1-2-1-1-1-X-2-X-1-X-1
900: 2-1-1-2-1-1-1-X-2-X-X-1-1
901: 2-1-1-2-1-1-1-X-2-X-X-X-X
902: 2-1-1-2-1-X-1-X-2-1-1-X-1
903: 2-1-1-2-1-X-1-X-2-1-X-1-1
904: 2-1-1-2-1-X-1-X-2-X-1-1-1
905: 2-1-1-2-X-1-1-X-2-1-X-X-X
906: 2-1-1-2-X-1-1-X-2-X-1-X-X
907: 2-1-1-2-X-1-1-X-2-X-X-1-X
908: 2-1-1-2-1-X-1-2-1-1-X-X-X
909: 2-1-1-2-1-X-1-2-1-X-1-X-X
910: 2-1-1-2-1-X-1-2-1-X-X-1-X
911: 2-1-1-2-X-1-1-2-1-1-1-X-1
912: 2-1-1-2-X-1-1-2-1-1-X-1-1
913: 2-1-1-2-X-1-1-2-1-X-1-1-1
914: 2-1-1-2-X-X-1-2-1-1-1-1-1
915: 2-1-1-2-X-X-1-2-1-1-1-X-X
916: 2-1-1-2-X-X-1-2-1-1-X-1-X
917: 2-1-1-2-X-X-1-2-1-X-1-1-X
918: 2-1-1-2-1-1-1-2-X-X-X-X-1
919: 2-1-1-2-1-X-1-2-X-1-1-1-1
920: 2-1-1-2-X-1-1-2-X-X-X-X-X
921: 2-1-1-2-1-1-1-2-2-1-1-1-X
922: 2-1-1-2-X-X-1-2-2-X-X-X-1
923: 2-1-X-1-1-X-1-1-1-1-X-X-1
924: 2-1-X-1-1-X-1-1-1-X-1-1-X
925: 2-1-X-1-X-1-1-1-1-1-X-X-1
926: 2-1-X-1-X-1-1-1-1-X-1-1-X
927: 2-1-X-1-1-1-1-1-X-1-1-1-1
928: 2-1-X-1-1-1-1-1-X-1-X-1-X
929: 2-1-X-1-1-1-1-1-X-X-1-X-1
930: 2-1-X-1-1-1-1-1-X-X-X-X-X
931: 2-1-X-1-X-X-1-1-X-1-X-1-X
932: 2-1-X-1-X-X-1-1-X-X-1-X-1
933: 2-1-X-1-1-X-1-1-2-1-1-X-X
934: 2-1-X-1-1-X-1-1-2-X-X-1-1
935: 2-1-X-1-X-1-1-1-2-1-1-X-X
936: 2-1-X-1-X-1-1-1-2-X-X-1-1
937: 2-1-X-1-1-X-1-X-1-1-X-1-X
938: 2-1-X-1-1-X-1-X-1-X-1-X-1
939: 2-1-X-1-X-1-1-X-1-1-X-1-X
940: 2-1-X-1-X-1-1-X-1-X-1-X-1
941: 2-1-X-1-1-X-1-X-X-1-1-X-X
942: 2-1-X-1-1-X-1-X-X-X-X-1-1
943: 2-1-X-1-X-1-1-X-X-1-1-X-X
944: 2-1-X-1-X-1-1-X-X-X-X-1-1
945: 2-1-X-1-1-1-1-X-2-1-X-X-1
946: 2-1-X-1-1-1-1-X-2-X-1-1-X
947: 2-1-X-1-X-X-1-X-2-1-1-1-1
948: 2-1-X-1-X-X-1-X-2-1-X-X-1
949: 2-1-X-1-X-X-1-X-2-X-1-1-X
950: 2-1-X-1-X-X-1-X-2-X-X-X-X
951: 2-1-X-1-1-1-1-2-1-1-1-1-1
952: 2-1-X-1-1-1-1-2-1-1-1-X-X
953: 2-1-X-1-1-1-1-2-1-X-X-1-1
954: 2-1-X-1-X-X-1-2-1-1-1-X-X
955: 2-1-X-1-X-X-1-2-1-X-X-1-1
956: 2-1-X-1-X-X-1-2-1-X-X-X-X
957: 2-1-X-1-1-X-1-2-X-1-X-X-1
958: 2-1-X-1-1-X-1-2-X-X-1-1-X
959: 2-1-X-1-X-1-1-2-X-1-X-X-1
960: 2-1-X-1-X-1-1-2-X-X-1-1-X
961: 2-1-X-1-1-X-1-2-2-1-X-1-X
962: 2-1-X-1-1-X-1-2-2-X-1-X-1
963: 2-1-X-1-X-1-1-2-2-1-X-1-X
964: 2-1-X-1-X-1-1-2-2-X-1-X-1
965: 2-1-X-X-1-1-1-1-1-1-1-1-X
966: 2-1-X-X-X-1-1-1-1-1-1-1-X
967: 2-1-X-X-X-X-1-1-1-1-1-1-X
968: 2-1-X-X-X-X-1-1-1-X-X-X-1
969: 2-1-X-X-1-1-1-1-X-1-X-X-1
970: 2-1-X-X-1-1-1-1-X-X-1-X-1
971: 2-1-X-X-1-1-1-1-X-X-X-1-1
972: 2-1-X-X-1-X-1-1-X-1-X-X-X
973: 2-1-X-X-1-X-1-1-X-X-1-X-X
974: 2-1-X-X-1-X-1-1-X-X-X-1-X
975: 2-1-X-X-1-X-1-1-X-X-X-X-1
976: 2-1-X-X-X-1-1-1-X-1-1-X-1
977: 2-1-X-X-X-1-1-1-X-1-X-1-1
978: 2-1-X-X-X-1-1-1-X-X-1-1-1
979: 2-1-X-X-1-X-1-1-2-1-1-1-1
980: 2-1-X-X-X-1-1-1-2-X-X-X-X
981: 2-1-X-X-1-1-1-X-1-X-X-X-1
982: 2-1-X-X-1-X-1-X-1-X-X-X-X
983: 2-1-X-X-X-1-1-X-1-1-1-1-1
984: 2-1-X-X-1-X-1-X-X-1-1-1-1
985: 2-1-X-X-X-1-1-X-X-X-X-X-X
986: 2-1-X-X-1-1-1-X-2-1-1-X-X
987: 2-1-X-X-1-1-1-X-2-1-X-1-X
988: 2-1-X-X-1-1-1-X-2-X-1-1-X
989: 2-1-X-X-1-X-1-X-2-1-1-1-X
990: 2-1-X-X-X-X-1-X-2-1-1-X-X
991: 2-1-X-X-X-X-1-X-2-1-X-1-X
992: 2-1-X-X-X-X-1-X-2-1-X-X-1
993: 2-1-X-X-X-X-1-X-2-X-1-1-X
994: 2-1-X-X-X-X-1-X-2-X-1-X-1
995: 2-1-X-X-X-X-1-X-2-X-X-1-1
996: 2-1-X-X-1-1-1-2-1-X-X-X-X
997: 2-1-X-X-1-X-1-2-1-1-1-X-1
998: 2-1-X-X-1-X-1-2-1-1-X-1-1
999: 2-1-X-X-1-X-1-2-1-X-1-1-1
1000: 2-1-X-X-X-1-1-2-1-1-1-1-X
1001: 2-1-X-X-X-1-1-2-1-1-X-X-X
1002: 2-1-X-X-X-1-1-2-1-X-1-X-X
1003: 2-1-X-X-X-1-1-2-1-X-X-1-X
1004: 2-1-X-X-1-1-1-2-X-1-1-1-X
1005: 2-1-X-X-X-1-1-2-X-1-1-1-X
1006: 2-1-X-X-X-X-1-2-X-1-1-1-X
1007: 2-1-X-X-X-X-1-2-X-X-X-X-1
1008: 2-1-X-X-1-1-1-2-2-X-X-X-1
1009: 2-1-X-X-1-X-1-2-2-X-X-X-X
1010: 2-1-X-X-X-1-1-2-2-1-1-1-1
1011: 2-1-X-2-1-1-1-1-1-1-X-X-X
1012: 2-1-X-2-1-1-1-1-1-X-1-1-1
1013: 2-1-X-2-X-X-1-1-1-1-X-X-X
1014: 2-1-X-2-X-X-1-1-1-X-1-1-1
1015: 2-1-X-2-1-X-1-1-X-1-1-1-X
1016: 2-1-X-2-1-X-1-1-X-1-1-X-1
1017: 2-1-X-2-1-X-1-1-X-X-X-1-X
1018: 2-1-X-2-1-X-1-1-X-X-X-X-1
1019: 2-1-X-2-X-1-1-1-X-1-1-X-1
1020: 2-1-X-2-X-1-1-1-X-X-X-1-X
1021: 2-1-X-2-1-1-1-1-2-1-X-1-1
1022: 2-1-X-2-1-1-1-1-2-X-1-X-X
1023: 2-1-X-2-X-X-1-1-2-1-X-1-1
1024: 2-1-X-2-X-X-1-1-2-X-1-X-X
1025: 2-1-X-2-1-1-1-X-1-1-1-X-1
1026: 2-1-X-2-1-1-1-X-1-X-X-1-X
1027: 2-1-X-2-X-X-1-X-1-1-1-X-1
1028: 2-1-X-2-X-X-1-X-1-X-X-1-X
1029: 2-1-X-2-1-1-1-X-X-1-X-1-1
1030: 2-1-X-2-1-1-1-X-X-X-1-X-X
1031: 2-1-X-2-X-X-1-X-X-1-X-1-1
1032: 2-1-X-2-X-X-1-X-X-X-1-X-X
1033: 2-1-X-2-1-X-1-X-2-1-X-X-X
1034: 2-1-X-2-1-X-1-X-2-X-1-1-1
1035: 2-1-X-2-1-X-1-X-2-X-X-X-1
1036: 2-1-X-2-X-1-1-X-2-1-1-1-X
1037: 2-1-X-2-X-1-1-X-2-1-X-X-X
1038: 2-1-X-2-X-1-1-X-2-X-1-1-1
1039: 2-1-X-2-1-X-1-2-1-1-1-1-X
1040: 2-1-X-2-1-X-1-2-1-1-X-1-1
1041: 2-1-X-2-1-X-1-2-1-X-1-X-X
1042: 2-1-X-2-X-1-1-2-1-1-X-1-1
1043: 2-1-X-2-X-1-1-2-1-X-1-X-X
1044: 2-1-X-2-X-1-1-2-1-X-X-X-1
1045: 2-1-X-2-1-1-1-2-X-1-X-X-X
1046: 2-1-X-2-1-1-1-2-X-X-1-1-1
1047: 2-1-X-2-X-X-1-2-X-1-X-X-X
1048: 2-1-X-2-X-X-1-2-X-X-1-1-1
1049: 2-1-X-2-1-1-1-2-2-1-1-X-1
1050: 2-1-X-2-1-1-1-2-2-X-X-1-X
1051: 2-1-X-2-X-X-1-2-2-1-1-X-1
1052: 2-1-X-2-X-X-1-2-2-X-X-1-X
1053: 2-1-2-1-1-X-1-1-1-X-X-X-X
1054: 2-1-2-1-X-1-1-1-1-1-1-1-1
1055: 2-1-2-1-X-1-1-1-1-X-X-X-1
1056: 2-1-2-1-1-X-1-1-X-1-1-1-X
1057: 2-1-2-1-1-X-1-1-X-1-1-X-1
1058: 2-1-2-1-1-X-1-1-X-1-X-1-1
1059: 2-1-2-1-1-X-1-1-X-X-1-1-1
1060: 2-1-2-1-X-1-1-1-X-1-X-X-X
1061: 2-1-2-1-X-1-1-1-X-X-1-X-X
1062: 2-1-2-1-X-1-1-1-X-X-X-1-X
1063: 2-1-2-1-X-X-1-1-X-1-1-1-1
1064: 2-1-2-1-X-X-1-1-X-1-1-X-X
1065: 2-1-2-1-X-X-1-1-X-1-X-1-X
1066: 2-1-2-1-X-X-1-1-X-X-1-1-X
1067: 2-1-2-1-1-1-1-1-2-1-1-1-X
1068: 2-1-2-1-1-1-1-1-2-X-X-X-1
1069: 2-1-2-1-X-X-1-1-2-X-X-X-1
1070: 2-1-2-1-1-X-1-X-1-1-1-1-1
1071: 2-1-2-1-X-1-1-X-1-X-X-X-X
1072: 2-1-2-1-X-X-1-X-1-1-1-1-X
1073: 2-1-2-1-1-1-1-X-X-1-1-1-X
1074: 2-1-2-1-1-1-1-X-X-X-X-X-1
1075: 2-1-2-1-X-X-1-X-X-X-X-X-1
1076: 2-1-2-1-1-X-1-X-2-1-X-X-X
1077: 2-1-2-1-1-X-1-X-2-X-1-X-X
1078: 2-1-2-1-1-X-1-X-2-X-X-1-X
1079: 2-1-2-1-1-X-1-X-2-X-X-X-1
1080: 2-1-2-1-X-1-1-X-2-1-1-X-1
1081: 2-1-2-1-X-1-1-X-2-1-X-1-1
1082: 2-1-2-1-X-1-1-X-2-X-1-1-1
1083: 2-1-2-1-1-1-1-2-1-1-1-X-X
1084: 2-1-2-1-1-1-1-2-1-1-X-1-X
1085: 2-1-2-1-1-1-1-2-1-1-X-X-1
1086: 2-1-2-1-1-1-1-2-1-X-1-1-X
1087: 2-1-2-1-1-1-1-2-1-X-1-X-1
1088: 2-1-2-1-1-1-1-2-1-X-X-1-1
1089: 2-1-2-1-X-1-1-2-1-X-X-X-1
1090: 2-1-2-1-X-X-1-2-1-1-X-X-1
1091: 2-1-2-1-X-X-1-2-1-X-1-X-1
1092: 2-1-2-1-X-X-1-2-1-X-X-1-1
1093: 2-1-2-1-1-X-1-2-X-X-X-X-X
1094: 2-1-2-1-X-1-1-2-X-1-1-1-1
1095: 2-1-2-1-X-1-1-2-X-X-X-X-1
1096: 2-1-2-1-1-X-1-2-2-1-1-1-1
1097: 2-1-2-1-X-1-1-2-2-X-X-X-X
1098: 2-1-2-1-X-X-1-2-2-1-1-1-X
1099: 2-1-2-X-1-1-1-1-1-1-X-1-1
1100: 2-1-2-X-1-1-1-1-1-X-1-X-X
1101: 2-1-2-X-X-X-1-1-1-1-X-1-1
1102: 2-1-2-X-X-X-1-1-1-X-1-X-X
1103: 2-1-2-X-1-X-1-1-X-1-1-1-X
1104: 2-1-2-X-1-X-1-1-X-1-X-X-X
1105: 2-1-2-X-1-X-1-1-X-X-1-1-1
1106: 2-1-2-X-1-X-1-1-X-X-X-X-1
1107: 2-1-2-X-X-1-1-1-X-1-X-X-X
1108: 2-1-2-X-X-1-1-1-X-X-1-1-1
1109: 2-1-2-X-1-1-1-1-2-1-1-X-1
1110: 2-1-2-X-1-1-1-1-2-X-X-1-X
1111: 2-1-2-X-X-X-1-1-2-1-1-X-1
1112: 2-1-2-X-X-X-1-1-2-X-X-1-X
1113: 2-1-2-X-1-1-1-X-1-1-X-X-X
1114: 2-1-2-X-1-1-1-X-1-X-1-1-1
1115: 2-1-2-X-X-X-1-X-1-1-X-X-X
1116: 2-1-2-X-X-X-1-X-1-X-1-1-1
1117: 2-1-2-X-1-1-1-X-X-1-1-X-1
1118: 2-1-2-X-1-1-1-X-X-X-X-1-X
1119: 2-1-2-X-X-X-1-X-X-1-1-X-1
1120: 2-1-2-X-X-X-1-X-X-X-X-1-X
1121: 2-1-2-X-1-X-1-X-2-1-X-1-1
1122: 2-1-2-X-1-X-1-X-2-X-1-X-X
1123: 2-1-2-X-X-1-1-X-2-1-1-1-X
1124: 2-1-2-X-X-1-1-X-2-1-X-1-1
1125: 2-1-2-X-X-1-1-X-2-X-1-X-X
1126: 2-1-2-X-X-1-1-X-2-X-X-X-1
1127: 2-1-2-X-1-X-1-2-1-1-1-1-X
1128: 2-1-2-X-1-X-1-2-1-1-1-X-1
1129: 2-1-2-X-1-X-1-2-1-X-X-1-X
1130: 2-1-2-X-1-X-1-2-1-X-X-X-1
1131: 2-1-2-X-X-1-1-2-1-1-1-X-1
1132: 2-1-2-X-X-1-1-2-1-X-X-1-X
1133: 2-1-2-X-1-1-1-2-X-1-X-1-1
1134: 2-1-2-X-1-1-1-2-X-X-1-X-X
1135: 2-1-2-X-X-X-1-2-X-1-X-1-1
1136: 2-1-2-X-X-X-1-2-X-X-1-X-X
1137: 2-1-2-X-1-1-1-2-2-1-X-X-X
1138: 2-1-2-X-1-1-1-2-2-X-1-1-1
1139: 2-1-2-X-X-X-1-2-2-1-X-X-X
1140: 2-1-2-X-X-X-1-2-2-X-1-1-1
1141: 2-1-2-2-1-X-1-1-1-1-1-X-X
1142: 2-1-2-2-1-X-1-1-1-X-X-1-1
1143: 2-1-2-2-X-1-1-1-1-1-1-X-X
1144: 2-1-2-2-X-1-1-1-1-X-X-1-1
1145: 2-1-2-2-1-1-1-1-X-1-X-X-1
1146: 2-1-2-2-1-1-1-1-X-X-1-1-X
1147: 2-1-2-2-1-1-1-1-X-X-X-X-X
1148: 2-1-2-2-X-X-1-1-X-1-1-1-1
1149: 2-1-2-2-X-X-1-1-X-1-X-X-1
1150: 2-1-2-2-X-X-1-1-X-X-1-1-X
1151: 2-1-2-2-1-X-1-1-2-1-X-1-X
1152: 2-1-2-2-1-X-1-1-2-X-1-X-1
1153: 2-1-2-2-X-1-1-1-2-1-X-1-X
1154: 2-1-2-2-X-1-1-1-2-X-1-X-1
1155: 2-1-2-2-1-X-1-X-1-1-X-X-1
1156: 2-1-2-2-1-X-1-X-1-X-1-1-X
1157: 2-1-2-2-X-1-1-X-1-1-X-X-1
1158: 2-1-2-2-X-1-1-X-1-X-1-1-X
1159: 2-1-2-2-1-X-1-X-X-1-X-1-X
1160: 2-1-2-2-1-X-1-X-X-X-1-X-1
1161: 2-1-2-2-X-1-1-X-X-1-X-1-X
1162: 2-1-2-2-X-1-1-X-X-X-1-X-1
1163: 2-1-2-2-1-1-1-X-2-1-1-1-1
1164: 2-1-2-2-1-1-1-X-2-1-1-X-X
1165: 2-1-2-2-1-1-1-X-2-X-X-1-1
1166: 2-1-2-2-X-X-1-X-2-1-1-1-1
1167: 2-1-2-2-X-X-1-X-2-1-1-X-X
1168: 2-1-2-2-X-X-1-X-2-X-X-1-1
1169: 2-1-2-2-X-X-1-X-2-X-X-X-X
1170: 2-1-2-2-1-1-1-2-1-1-1-1-1
1171: 2-1-2-2-1-1-1-2-1-1-X-1-X
1172: 2-1-2-2-1-1-1-2-1-X-1-X-1
1173: 2-1-2-2-1-1-1-2-1-X-X-X-X
1174: 2-1-2-2-X-X-1-2-1-1-X-1-X
1175: 2-1-2-2-X-X-1-2-1-X-1-X-1
1176: 2-1-2-2-X-X-1-2-1-X-X-X-X
1177: 2-1-2-2-1-X-1-2-X-1-1-X-X
1178: 2-1-2-2-1-X-1-2-X-X-X-1-1
1179: 2-1-2-2-X-1-1-2-X-1-1-X-X
1180: 2-1-2-2-X-1-1-2-X-X-X-1-1
1181: 2-1-2-2-1-X-1-2-2-1-X-X-1
1182: 2-1-2-2-1-X-1-2-2-X-1-1-X
1183: 2-1-2-2-X-1-1-2-2-1-X-X-1
1184: 2-1-2-2-X-1-1-2-2-X-1-1-X


Nach oben
   
 Betreff des Beitrags: Re: Toto-Systeme
BeitragVerfasst: 26. Mai 2018, 01:07 
Offline
Tipp-Geselle

Registriert: 12. Apr 2018, 23:26
Beiträge: 63
SirYabba hat geschrieben:
@Seyd

2 Banken, 6 Zweierwege, 5 Dreierwege

Vollsystem: 15.552 Reihen
Teilsystem, 12er-Garantie: 1.184 Reihen
Teilsystem, 11er-Garantie: 192 Reihen
Teilsystem, 10er-Garantie: 54 Reihen

Anbei die 1.184 Reihen:[...]

@SirYabba
Vielen schönen DANK
kannst du mir sagen bitte bei wie viel % liegt der 1er Rang ?.
Danke im vorraus

_________________
Ich spiele Toto seit 1987
Resultate: 10er = über 500, 11er = über 80, 12er = über 20, 13er = 8 (aber seit 2016 leider kein 13er)
Vorsicht vor Italien, Österreich, England 2 bis Amateure, Schweden sowieso, und allen arabischen Ligen.


Nach oben
   
 Betreff des Beitrags: Re: Toto-Systeme
BeitragVerfasst: 26. Mai 2018, 08:08 
Offline
Tipp-Legende

Registriert: 21. Mär 2007, 22:21
Beiträge: 1450
Wohnort: Nördlich von Bayern
Seyd hat geschrieben:
SirYabba hat geschrieben:
@Seyd

2 Banken, 6 Zweierwege, 5 Dreierwege

Vollsystem: 15.552 Reihen
Teilsystem, 12er-Garantie: 1.184 Reihen
Teilsystem, 11er-Garantie: 192 Reihen
Teilsystem, 10er-Garantie: 54 Reihen

Anbei die 1.184 Reihen:[...]
@SirYabba
Vielen schönen DANK
kannst du mir sagen bitte bei wie viel % liegt der 1er Rang ?.
Danke im vorraus
Die 1.Rangwahrscheinlichkeit lässt sich immer leicht ermitteln.
Wenn das Vollsystem aus 15522 Reihen besteht un du hierraus 1184 unterschiedliche Reihen spielst ist die Wahrscheinlichkeit auf einen Volltreffer:
1184/15522=0,07623... also 7,623...%
Immer die Größe des Teilsystems geteilt durch das Vollsystem.
Aus meiner Sicht das einzige was zählt. der Rest ist Spielkram. Einige ander sehen das aber durchaus anders.

_________________
http://www.betassist.de


Nach oben
   
 Betreff des Beitrags: Re: Toto-Systeme
BeitragVerfasst: 27. Mai 2018, 02:21 
Offline
Tipp-Geselle

Registriert: 12. Apr 2018, 23:26
Beiträge: 63
TomPy hat geschrieben:
Seyd hat geschrieben:
SirYabba hat geschrieben:
@Seyd

2 Banken, 6 Zweierwege, 5 Dreierwege

Vollsystem: 15.552 Reihen
Teilsystem, 12er-Garantie: 1.184 Reihen
Teilsystem, 11er-Garantie: 192 Reihen
Teilsystem, 10er-Garantie: 54 Reihen

Anbei die 1.184 Reihen:[...]
@SirYabba
Vielen schönen DANK
kannst du mir sagen bitte bei wie viel % liegt der 1er Rang ?.
Danke im vorraus
Die 1.Rangwahrscheinlichkeit lässt sich immer leicht ermitteln.
Wenn das Vollsystem aus 15522 Reihen besteht un du hierraus 1184 unterschiedliche Reihen spielst ist die Wahrscheinlichkeit auf einen Volltreffer:
1184/15522=0,07623... also 7,623...%
Immer die Größe des Teilsystems geteilt durch das Vollsystem.
Aus meiner Sicht das einzige was zählt. der Rest ist Spielkram. Einige ander sehen das aber durchaus anders.


@TomPy..
vielen dank für die Erklärung..
bin da zu gelernt.
Gruß

_________________
Ich spiele Toto seit 1987
Resultate: 10er = über 500, 11er = über 80, 12er = über 20, 13er = 8 (aber seit 2016 leider kein 13er)
Vorsicht vor Italien, Österreich, England 2 bis Amateure, Schweden sowieso, und allen arabischen Ligen.


Nach oben
   
 Betreff des Beitrags: Re: Toto-Systeme
BeitragVerfasst: 31. Mai 2018, 19:05 
Offline
Tipp-Geselle

Registriert: 29. Jul 2017, 12:40
Beiträge: 71
Hallo,

wäre jemand wieder so lieb und würde mir den 544 auf 128 Reihen erstellen?!

2
10
1
10
10
102
1
10
102
102
1
102
1

Vielen Dank vorab!

Gruß
Frank


Nach oben
   
 Betreff des Beitrags: Re: Toto-Systeme
BeitragVerfasst: 1. Jun 2018, 09:58 
Offline
Tipp-Spezialist (mar)
Tipp-Spezialist (mar)

Registriert: 13. Jul 2012, 15:41
Beiträge: 537
Wohnort: Schweiz
Frank2017 hat geschrieben:
Hallo,

wäre jemand wieder so lieb und würde mir den 544 auf 128 Reihen erstellen?!

2
10
1
10
10
102
1
10
102
102
1
102
1

Vielen Dank vorab!

Gruß
Frank


:wave
5-4-4, Vollsystem =1296 Reihen, 12er Garantie = 128 Reihen
Viel Glück!
Code:
----------------------------------------------------------------
   Fälle          %K          %T    13er    12er    11er    10er
----------------------------------------------------------------
     128     9.87654     9.87654       1     0-2     0-5   17-26
    1168    90.12346   100.00000       0     1-4    4-10   12-21
----------------------------------------------------------------
    1296   100.00000
----------------------------------------------------------------
----------------------------------------------------------------
   Fälle          %K          %T    13er    12er    11er    10er
----------------------------------------------------------------
     128     9.87654     9.87654       1     0-2     0-5   17-26

       4     0.30864    10.18519       0       4       6      14
      16     1.23457    11.41975       0       3       5   13-15
     260    20.06173    31.48148       0       2     4-9   12-18
     888    68.51852   100.00000       0       1    5-10   15-21
----------------------------------------------------------------
    1296   100.00000
----------------------------------------------------------------
---------------------------------------------------------------------
     Nr.               1       0       2          %1      %0      %2
---------------------------------------------------------------------
       1     2--       0       0     128        0.00    0.00  100.00
       2     10-      64      64       0       50.00   50.00    0.00
       3     1--     128       0       0      100.00    0.00    0.00
       4     10-      64      64       0       50.00   50.00    0.00
       5     10-      64      64       0       50.00   50.00    0.00
       6     102      44      42      42       34.38   32.81   32.81
       7     1--     128       0       0      100.00    0.00    0.00
       8     10-      64      64       0       50.00   50.00    0.00
       9     102      44      42      42       34.38   32.81   32.81
      10     102      44      42      42       34.38   32.81   32.81
      11     1--     128       0       0      100.00    0.00    0.00
      12     102      44      42      42       34.38   32.81   32.81
      13     1--     128       0       0      100.00    0.00    0.00
---------------------------------------------------------------------
                     944     424     296       56.73   25.48   17.79
---------------------------------------------------------------------


128 Reihen
2,1,1,1,1,1,1,1,1,1,1,1,1,
2,1,1,1,1,1,1,1,0,0,1,1,1,
2,1,1,1,1,1,1,1,2,2,1,1,1,
2,1,1,1,1,1,1,0,1,0,1,2,1,
2,1,1,1,1,1,1,0,1,2,1,0,1,
2,1,1,1,1,1,1,0,0,0,1,1,1,
2,1,1,1,1,0,1,1,1,2,1,2,1,
2,1,1,1,1,0,1,1,0,2,1,0,1,
2,1,1,1,1,0,1,1,2,1,1,2,1,
2,1,1,1,1,0,1,0,0,1,1,1,1,
2,1,1,1,1,0,1,0,2,0,1,0,1,
2,1,1,1,1,2,1,1,1,0,1,0,1,
2,1,1,1,1,2,1,1,0,1,1,0,1,
2,1,1,1,1,2,1,1,2,0,1,2,1,
2,1,1,1,1,2,1,0,0,2,1,2,1,
2,1,1,1,1,2,1,0,2,1,1,1,1,
2,1,1,1,0,1,1,1,1,1,1,1,1,
2,1,1,1,0,1,1,1,0,2,1,0,1,
2,1,1,1,0,1,1,1,2,0,1,2,1,
2,1,1,1,0,1,1,0,0,1,1,2,1,
2,1,1,1,0,1,1,0,2,1,1,0,1,
2,1,1,1,0,0,1,1,1,1,1,0,1,
2,1,1,1,0,0,1,1,0,2,1,1,1,
2,1,1,1,0,0,1,1,2,2,1,2,1,
2,1,1,1,0,0,1,0,1,1,1,0,1,
2,1,1,1,0,0,1,0,1,0,1,1,1,
2,1,1,1,0,0,1,0,2,2,1,2,1,
2,1,1,1,0,2,1,1,1,1,1,2,1,
2,1,1,1,0,2,1,1,0,0,1,0,1,
2,1,1,1,0,2,1,1,2,0,1,1,1,
2,1,1,1,0,2,1,0,1,2,1,1,1,
2,1,1,1,0,2,1,0,0,0,1,0,1,
2,1,1,0,1,1,1,1,0,1,1,2,1,
2,1,1,0,1,1,1,1,0,0,1,1,1,
2,1,1,0,1,1,1,1,2,1,1,0,1,
2,1,1,0,1,1,1,0,1,1,1,1,1,
2,1,1,0,1,1,1,0,0,0,1,0,1,
2,1,1,0,1,1,1,0,2,2,1,2,1,
2,1,1,0,1,0,1,1,1,0,1,1,1,
2,1,1,0,1,0,1,1,0,2,1,0,1,
2,1,1,0,1,0,1,0,1,1,1,2,1,
2,1,1,0,1,0,1,0,2,0,1,0,1,
2,1,1,0,1,0,1,0,2,2,1,1,1,
2,1,1,0,1,2,1,1,1,2,1,1,1,
2,1,1,0,1,2,1,1,2,0,1,2,1,
2,1,1,0,1,2,1,0,1,1,1,0,1,
2,1,1,0,1,2,1,0,0,0,1,1,1,
2,1,1,0,1,2,1,0,0,2,1,2,1,
2,1,1,0,0,1,1,1,1,0,1,0,1,
2,1,1,0,0,1,1,1,1,2,1,2,1,
2,1,1,0,0,1,1,0,1,1,1,1,1,
2,1,1,0,0,1,1,0,0,2,1,1,1,
2,1,1,0,0,1,1,0,2,0,1,1,1,
2,1,1,0,0,0,1,1,1,1,1,0,1,
2,1,1,0,0,0,1,1,0,0,1,2,1,
2,1,1,0,0,0,1,1,2,1,1,1,1,
2,1,1,0,0,0,1,0,1,2,1,0,1,
2,1,1,0,0,0,1,0,0,1,1,0,1,
2,1,1,0,0,0,1,0,0,0,1,2,1,
2,1,1,0,0,2,1,1,0,1,1,1,1,
2,1,1,0,0,2,1,1,2,2,1,0,1,
2,1,1,0,0,2,1,0,1,0,1,2,1,
2,1,1,0,0,2,1,0,2,1,1,2,1,
2,1,1,0,0,2,1,0,2,2,1,0,1,
2,0,1,1,1,1,1,1,1,1,1,1,1,
2,0,1,1,1,1,1,1,0,2,1,2,1,
2,0,1,1,1,1,1,1,2,0,1,0,1,
2,0,1,1,1,1,1,0,0,1,1,0,1,
2,0,1,1,1,1,1,0,2,1,1,2,1,
2,0,1,1,1,0,1,1,1,1,1,0,1,
2,0,1,1,1,0,1,1,0,0,1,2,1,
2,0,1,1,1,0,1,1,2,0,1,1,1,
2,0,1,1,1,0,1,0,1,2,1,1,1,
2,0,1,1,1,0,1,0,0,0,1,2,1,
2,0,1,1,1,2,1,1,1,1,1,2,1,
2,0,1,1,1,2,1,1,0,2,1,1,1,
2,0,1,1,1,2,1,1,2,2,1,0,1,
2,0,1,1,1,2,1,0,1,1,1,2,1,
2,0,1,1,1,2,1,0,1,0,1,1,1,
2,0,1,1,1,2,1,0,2,2,1,0,1,
2,0,1,1,0,1,1,1,1,1,1,1,1,
2,0,1,1,0,1,1,1,0,0,1,1,1,
2,0,1,1,0,1,1,1,2,2,1,1,1,
2,0,1,1,0,1,1,0,1,0,1,0,1,
2,0,1,1,0,1,1,0,1,2,1,2,1,
2,0,1,1,0,1,1,0,2,2,1,1,1,
2,0,1,1,0,0,1,1,1,0,1,2,1,
2,0,1,1,0,0,1,1,0,1,1,2,1,
2,0,1,1,0,0,1,1,2,0,1,0,1,
2,0,1,1,0,0,1,0,0,2,1,0,1,
2,0,1,1,0,0,1,0,2,1,1,1,1,
2,0,1,1,0,2,1,1,1,2,1,0,1,
2,0,1,1,0,2,1,1,0,2,1,2,1,
2,0,1,1,0,2,1,1,2,1,1,0,1,
2,0,1,1,0,2,1,0,0,1,1,1,1,
2,0,1,1,0,2,1,0,2,0,1,2,1,
2,0,1,0,1,1,1,1,1,0,1,2,1,
2,0,1,0,1,1,1,1,1,2,1,0,1,
2,0,1,0,1,1,1,0,1,1,1,1,1,
2,0,1,0,1,1,1,0,0,2,1,1,1,
2,0,1,0,1,1,1,0,2,0,1,1,1,
2,0,1,0,1,0,1,1,0,1,1,1,1,
2,0,1,0,1,0,1,1,2,2,1,2,1,
2,0,1,0,1,0,1,0,1,0,1,0,1,
2,0,1,0,1,0,1,0,2,1,1,0,1,
2,0,1,0,1,0,1,0,2,2,1,2,1,
2,0,1,0,1,2,1,1,1,1,1,2,1,
2,0,1,0,1,2,1,1,0,0,1,0,1,
2,0,1,0,1,2,1,1,2,1,1,1,1,
2,0,1,0,1,2,1,0,1,2,1,2,1,
2,0,1,0,1,2,1,0,0,1,1,2,1,
2,0,1,0,1,2,1,0,0,0,1,0,1,
2,0,1,0,0,1,1,1,0,1,1,0,1,
2,0,1,0,0,1,1,1,2,1,1,2,1,
2,0,1,0,0,1,1,1,2,2,1,1,1,
2,0,1,0,0,1,1,0,1,1,1,1,1,
2,0,1,0,0,1,1,0,0,0,1,2,1,
2,0,1,0,0,1,1,0,2,2,1,0,1,
2,0,1,0,0,0,1,1,1,2,1,1,1,
2,0,1,0,0,0,1,1,2,0,1,0,1,
2,0,1,0,0,0,1,0,1,1,1,2,1,
2,0,1,0,0,0,1,0,0,0,1,1,1,
2,0,1,0,0,0,1,0,0,2,1,0,1,
2,0,1,0,0,2,1,1,1,0,1,1,1,
2,0,1,0,0,2,1,1,0,2,1,2,1,
2,0,1,0,0,2,1,0,1,1,1,0,1,
2,0,1,0,0,2,1,0,2,0,1,2,1,
2,0,1,0,0,2,1,0,2,2,1,1,1,


Nach oben
   
 Betreff des Beitrags: Re: Toto-Systeme
BeitragVerfasst: 2. Jun 2018, 12:42 
Offline
Tipp-Geselle

Registriert: 29. Jul 2017, 12:40
Beiträge: 71
Vielen vielen Dank für die Mühe


Nach oben
   
 Betreff des Beitrags: Re: Toto-Systeme
BeitragVerfasst: 14. Jun 2018, 14:16 
Offline
Tipp-Geselle

Registriert: 29. Jul 2017, 12:40
Beiträge: 71
Hey,

ich würde die WM gern mit einem 463 gespielt auf 80 Reihen einleiteten; wäre jemand so freundlich und erstellt es mir?

10
1
1
02
102
102
10
10
1
02
102
1
10

Sonnige Grüße aus Bärlin
Frank


Nach oben
   
 Betreff des Beitrags: Re: Toto-Systeme
BeitragVerfasst: 15. Jun 2018, 19:56 
Offline
Tipp-Spezialist (mar)
Tipp-Spezialist (mar)

Registriert: 13. Jul 2012, 15:41
Beiträge: 537
Wohnort: Schweiz
Frank2017 hat geschrieben:
Hey,

ich würde die WM gern mit einem 463 gespielt auf 80 Reihen einleiteten; wäre jemand so freundlich und erstellt es mir?

10
1
1
02
102
102
10
10
1
02
102
1
10

Sonnige Grüße aus Bärlin
Frank


:wave
4-6-3 Vollsystem = 1728 Reihen, 12er Garantie = 174 Reihen, 11er Garantie = 36 Reihen

System 80 Reihen:
66 Reihen mit 2x 11er Garantie (ohne Filters - ZWs und DWs gleichverteilt) + 14 Reihen Richtung 12er Garantie falls Bookie GT gut trifft.
Code:
----------------------------------------------------------------
       K          %K          %T       N     N-1     N-2     N-3
----------------------------------------------------------------
      80     4.62963     4.62963       1     0-1     0-7    5-20
     820    47.45370    52.08333       0     1-4    1-14    0-19
     828    47.91667   100.00000       0       0    2-10    4-18
----------------------------------------------------------------
    1728   100.00000
----------------------------------------------------------------
----------------------------------------------------------------
       K          %K          %T       N     N-1     N-2     N-3
----------------------------------------------------------------
      80     4.62963     4.62963       1     0-1     0-7    5-20

       2     0.11574     4.74537       0       4     1-2    3-14
      16     0.92593     5.67130       0       3     1-6    4-18
      98     5.67130    11.34259       0       2     1-6    0-19
     704    40.74074    52.08333       0       1    1-14    1-17

       1     0.05787    52.14120       0       0      10       8
       1     0.05787    52.19907       0       0       9       4
       5     0.28935    52.48843       0       0       8    5-10
      12     0.69444    53.18287       0       0       7    6-12
      23     1.33102    54.51389       0       0       6    5-13
      74     4.28241    58.79630       0       0       5    4-14
     155     8.96991    67.76620       0       0       4    5-17
     331    19.15509    86.92130       0       0       3    6-18
     226    13.07870   100.00000       0       0       2    7-15
----------------------------------------------------------------
    1728   100.00000
----------------------------------------------------------------
---------------------------------------------------------------------
     Nr.               1       0       2          %1      %0      %2
---------------------------------------------------------------------
       1     10-      44      36       0       55.00   45.00    0.00
       2     1--      80       0       0      100.00    0.00    0.00
       3     1--      80       0       0      100.00    0.00    0.00
       4     20-       0      36      44        0.00   45.00   55.00
       5     102      30      25      25       37.50   31.25   31.25
       6     210      26      24      30       32.50   30.00   37.50
       7     10-      44      36       0       55.00   45.00    0.00
       8     10-      42      38       0       52.50   47.50    0.00
       9     1--      80       0       0      100.00    0.00    0.00
      10     20-       0      34      46        0.00   42.50   57.50
      11     102      30      25      25       37.50   31.25   31.25
      12     1--      80       0       0      100.00    0.00    0.00
      13     10-      44      36       0       55.00   45.00    0.00
---------------------------------------------------------------------
                     580     290     170       55.77   27.88   16.35
---------------------------------------------------------------------

80 Reihen:
1,1,1,0,1,1,0,1,1,2,0,1,0,
1,1,1,0,1,0,1,0,1,0,1,1,1,
1,1,1,0,1,0,1,0,1,2,1,1,0,
1,1,1,0,1,2,1,1,1,0,1,1,1,
1,1,1,0,1,2,1,1,1,0,2,1,0,
1,1,1,0,1,2,1,1,1,2,2,1,1,
1,1,1,0,1,2,0,0,1,0,2,1,1,
1,1,1,0,0,1,1,0,1,0,2,1,1,
1,1,1,0,0,1,1,0,1,2,2,1,0,
1,1,1,0,0,0,1,1,1,0,0,1,0,
1,1,1,0,0,0,0,0,1,0,0,1,1,
1,1,1,0,0,0,0,0,1,2,2,1,1,
1,1,1,0,0,2,1,0,1,2,0,1,1,
1,1,1,0,0,2,0,1,1,2,1,1,0,
1,1,1,0,2,1,1,1,1,0,1,1,0,
1,1,1,0,2,1,1,0,1,2,0,1,1,
1,1,1,0,2,1,0,0,1,0,1,1,1,
1,1,1,0,2,0,0,1,1,2,2,1,0,
1,1,1,0,2,2,1,0,1,2,0,1,0,
1,1,1,0,2,2,0,1,1,2,0,1,1,
1,1,1,2,1,1,1,1,1,2,1,1,0,
1,1,1,2,1,1,1,0,1,2,1,1,1,
1,1,1,2,1,1,1,0,1,2,0,1,0,
1,1,1,2,1,1,0,1,1,2,1,1,1,
1,1,1,2,1,1,0,0,1,0,0,1,0,
1,1,1,2,1,0,1,1,1,2,1,1,1,
1,1,1,2,1,2,1,1,1,0,2,1,1,
1,1,1,2,1,2,1,1,1,2,0,1,0,
1,1,1,2,1,2,1,0,1,2,2,1,1,
1,1,1,2,1,2,0,1,1,0,1,1,0,
1,1,1,2,1,2,0,0,1,2,1,1,1,
1,1,1,2,0,1,1,1,1,2,2,1,1,
1,1,1,2,0,1,0,1,1,2,2,1,0,
1,1,1,2,0,0,1,1,1,0,0,1,1,
1,1,1,2,0,2,1,0,1,2,1,1,0,
1,1,1,2,0,2,0,1,1,2,1,1,1,
1,1,1,2,0,2,0,0,1,0,1,1,0,
1,1,1,2,2,1,1,1,1,0,1,1,1,
1,1,1,2,2,0,1,0,1,2,2,1,0,
1,1,1,2,2,0,0,1,1,2,2,1,1,
1,1,1,2,2,0,0,0,1,0,2,1,0,
1,1,1,2,2,0,0,0,1,2,0,1,1,
1,1,1,2,2,2,1,1,1,2,1,1,0,
1,1,1,2,2,2,1,1,1,2,0,1,1,
0,1,1,0,1,1,1,1,1,2,0,1,1,
0,1,1,0,1,1,1,0,1,0,1,1,0,
0,1,1,0,1,1,0,1,1,0,0,1,1,
0,1,1,0,1,0,0,0,1,0,1,1,0,
0,1,1,0,1,2,1,0,1,2,1,1,1,
0,1,1,0,1,2,0,0,1,2,2,1,0,
0,1,1,0,0,1,1,0,1,0,2,1,1,
0,1,1,0,0,1,0,0,1,0,2,1,0,
0,1,1,0,0,0,0,0,1,2,0,1,0,
0,1,1,0,0,2,1,1,1,2,1,1,1,
0,1,1,0,0,2,0,1,1,0,1,1,1,
0,1,1,0,2,1,0,0,1,2,1,1,0,
0,1,1,0,2,0,1,1,1,0,0,1,0,
0,1,1,0,2,0,1,1,1,2,2,1,1,
0,1,1,0,2,0,0,1,1,0,2,1,1,
0,1,1,0,2,2,0,0,1,0,0,1,0,
0,1,1,2,1,1,1,0,1,0,0,1,1,
0,1,1,2,1,0,0,1,1,0,1,1,1,
0,1,1,2,1,0,0,1,1,2,1,1,0,
0,1,1,2,1,2,1,1,1,2,0,1,1,
0,1,1,2,1,2,1,1,1,2,2,1,0,
0,1,1,2,1,2,0,0,1,2,2,1,1,
0,1,1,2,0,1,0,1,1,0,2,1,1,
0,1,1,2,0,1,0,1,1,2,2,1,0,
0,1,1,2,0,0,1,1,1,0,2,1,0,
0,1,1,2,0,0,1,1,1,2,0,1,0,
0,1,1,2,0,0,1,0,1,2,1,1,1,
0,1,1,2,0,0,0,0,1,2,0,1,1,
0,1,1,2,0,2,1,0,1,0,1,1,1,
0,1,1,2,2,1,1,1,1,2,1,1,0,
0,1,1,2,2,1,0,1,1,0,0,1,0,
0,1,1,2,2,1,0,0,1,2,1,1,1,
0,1,1,2,2,0,1,0,1,0,2,1,1,
0,1,1,2,2,2,1,1,1,2,1,1,1,
0,1,1,2,2,2,1,0,1,0,0,1,0,
0,1,1,2,2,2,0,1,1,0,0,1,1,


Nach oben
   
 Betreff des Beitrags: Re: Toto-Systeme
BeitragVerfasst: 16. Jun 2018, 10:05 
Offline
Tipp-Geselle

Registriert: 29. Jul 2017, 12:40
Beiträge: 71
Viele vielen Dank MarkoM für deine Hilfe!!


Nach oben
   
Beiträge der letzten Zeit anzeigen:  Sortiere nach  
Ein neues Thema erstellen  Auf das Thema antworten  [ 163 Beiträge ]  Gehe zu Seite Vorherige 17 8 9 10 11

Alle Zeiten sind UTC+02:00


Wer ist online?

Mitglieder in diesem Forum: 0 Mitglieder und 1 Gast


Du darfst keine neuen Themen in diesem Forum erstellen.
Du darfst keine Antworten zu Themen in diesem Forum erstellen.
Du darfst deine Beiträge in diesem Forum nicht ändern.
Du darfst deine Beiträge in diesem Forum nicht löschen.
Du darfst keine Dateianhänge in diesem Forum erstellen.

Suche nach:
Gehe zu: